PrimaNota.ru - самый крупный в мире бесплатный архив песенных текстов, аккордов, табулатур и нот


Land Of Talk - Some Are Lakes - таба, видео

Регистрация Запомнить меня
Войти через:  Facebook Google Twitter Vk Yandex Mail.ru

Land Of Talk - Some Are Lakes - таба, видео

Печатать
Просмотров: 129
Авторы музыки: Elizabeth Powell
Авторы текста: Elizabeth Powell
=============================================================================

Song: Some Are Lakes
Artist: Land Of Talk
Album: Some Are Lakes
Tabbed by: Charlie Lewis
Email: sci-fi-lullaby@hotmail.co.uk

Tuning:STANDARD

I couldn't find a tab for this anywhere so had to tab it myself and just 
thought I'd share it with you lovely people! I tabbed it on an acoustic but 
wrote it out as barre chords as I assume they play as the song is on an 
electric. 
I had problems with the bridge but in this resubmitted version i think i 
have it cracked! thanks to Alex ;)
Aaaalso I have to admit Im not sure if the chord in the 3rd and 4th bar in 
the Chorus is an E or an E minor, I dont know much about music theory 
but the Em sounds good to me.. see what you think.
Anyway hope you enjoy playing this beautiful song as much as i enjoyed 

tabbing it :) Please Rate!

INTRO:
                            A
   1   2   3   4    1   2   3   4       
e||----------------|--------5---5---||
B||----------------|--------5---5---||
G||----------------|--------6---6---||
D||----------------|--------7---7---||
A||----------------|--------7---7---|| 
E||----------------|--------5---5---|| 
                    what started at a..



VERSE:
PLAY X3
    G                        A        Bm            Bsus2      A
    1   2   3   4    1   2   3   4    1   2   3   4    1   2   3   4     
e|| 3---3---3-3---3-|--3---3-5---5---|2---2---2-2---2-|--2---2-5---5--- ||
B|| 3---3---3-3---3-|--3---3-5---5---|3---3---3-3---2-|--2---2-5---5--- ||
G||.4---4---4-4---4-|--4---4-6---6---|4---4---4-4---4-|--4---4-6---6---.||
D||.5---5---5-5---5-|--5---5-7---7---|4---4---4-4---4-|--4---4-7---7---.||
A|| 5---5---5-5---5-|--5---5-7---7---|2---2---2-2---2-|--2---2-7---7--- ||
E|| 3---3---3-3---3-|--3---3-5---5---|2---2---2-2---2-|--2---2-5---5--- ||

PLAY X1
   G                            A    F#
   1   2   3   4    1   2   3   4    1   2   3   4    1   2   3   4     
e||3---3---3-3---3-|--3---3---3-5---|2---------------|----------------||
B||3---3---3-3---3-|--3---3---3-5---|2---------------|----------------||
G||4---4---4-4---4-|--4---4---4-6---|3---------------|----------------||
D||5---5---5-5---5-|--5---5---5-7-0-|4---------------|----------------||
A||5---5---5-5---5-|--5---5---5-7-0-|4---------------|----------------||
E||3---3---3-3---3-|--3---3---3-5-0-|2---------------|----------------||




CHORUS:
   G                            F#   Em
   1   2   3   4    1   2   3   4    1   2   3   4    1   2   3   4     
e||3---3---3-3---3-|--3---3---3-2---|0---0---0-0---0-|--0---0---0-0---||
B||3---3---3-3---3-|--3---3---3-2---|0---0---0-0---0-|--0---0---0-0---||
G||4---4---4-4---4-|--4---4---4-3---|0---0---0-0---0-|--0---0---0-0---||
D||5---5---5-5---5-|--5---5---5-4---|2---2---2-2---2-|--2---2---2-2---||
A||5---5---5-5---5-|--5---5---5-4---|2---2---2-2---2-|--2---2---2-2---||
E||3---3---3-3---3-|--3---3---3-2---|0---0---0-0---0-|--0---0---0-0---||
 We've seen how Sick Wind blows and i got your bovine eyes,      and i'll    

   D                Bm               G
   1   2   3   4    1   2   3   4    1   2   3   4    1   2   3   4   
e||5---5---5-5---5-|2---2---2-2---2-|3---3---3-3---3-|--3---3-3---3---||
B||7---7---7-7---7-|3---3---3-3---3-|3---3---3-3---3-|--3---3-3---3---||
G||7---7---7-7---7-|4---4---4-4---4-|4---4---4-4---4-|--4---4-4---4---||
D||7---7---7-7---7-|4---4---4-4---4-|5---5---5-5---5-|--5---5-5---5---||
A||5---5---5-5---5-|2---2---2-2---2-|5---5---5-5---5-|--5---5-5---5---||
E||5---5---5-5---5-|2---2---2-2---2-|3---3---3-3---3-|--3---3-3---3---||
  love you like i love you, then ill die.

   G                            F#   Em
   1   2   3   4    1   2   3   4    1   2   3   4    1   2   3   4     
e||3---3---3-3---3-|--3---3---3-2---|0---0---0-0---0-|--0---0---0-0---||
B||3---3---3-3---3-|--3---3---3-2---|0---0---0-0---0-|--0---0---0-0---||
G||4---4---4-4---4-|--4---4---4-3---|0---0---0-0---0-|--0---0---0-0---||
D||5---5---5-5---5-|--5---5---5-4---|2---2---2-2---2-|--2---2---2-2---||
A||5---5---5-5---5-|--5---5---5-4---|2---2---2-2---2-|--2---2---2-2---||
E||3---3---3-3---3-|--3---3---3-2---|0---0---0-0---0-|--0---0---0-0---||
 We've seen how Sick Wind blows and i got your bovine eyes,      and i'll    

   D                Bm               F#
   1   2   3   4    1   2   3   4    1   2   3   4    1   2   3   4   
e||5---5---5-5---5-|2---2---2-2---2-|2---------------|----------------||
B||7---7---7-7---7-|3---3---3-3---3-|2---------------|----------------||
G||7---7---7-7---7-|4---4---4-4---4-|3---------------|----------------||
D||7---7---7-7---7-|4---4---4-4---4-|4---------------|----------------||
A||5---5---5-5---5-|2---2---2-2---2-|4---------------|----------------||
E||5---5---5-5---5-|2---2---2-2---2-|2---------------|----------------||
  love you like i love you, then ill die.




BRIDGE:

    1   2   3   4    1   2   3   4     
e|| ----------------|---------------- ||   Play this part however you feel
B|| ----------------|---------------- ||   sounds best; you only really
G||.0-0-x-0-0-0-x-0-|0-0-x-0-0-0-x-0-.||   need to play the bottom 2 strings.
D||.0-0-x-0-0-0-x-0-|0-0-x-0-0-0-x-0-.||   On the second bar if 12 and 13
A|| 1212x-121414x-0-|1313x-131212x-0- ||   are too much of a stretch you can
E|| x-x-x-x-x-x-x-0-|8-8-x-8-8-8-x-0- ||   use fret 7 and 8 on D string :)

    Bm               D
    1   2   3   4    1   2   3   4      1   2   3   4    1   2   3   4   
e|| 7---7-7---7---7/|10--10-10--10--10-|----------------|---------------- ||
B|| 7---7-7---7---7/|10--10-10--10--10-|----------------|---------------- ||
G||.7---7-7---7---7/|10--10-10--10--10x|0-0-x-0-0-0-x-0-|0-0-x-0-0-0-x-0-.||
D||.9---9-9---9---9/|12--12-12--12--12x|0-0-x-0-0-0-x-0-|0-0-x-0-0-0-x-0-.||
A|| 9---9-9---9---9/|12--12-12--12--12x|1212x-121414x-0-|1313x-131212x-0  ||
E|| 7---7-7---7---7/|10--10-10--10--10x|x-x-x-x-x-x-x-0-|8-8-x-8-8-8-x-0- ||
I relate kid, but I'm the one who wants to let you wonder




PRE-CHORUS:
   G                          F#     Em
   1   2   3   4    1   2   3   4    1   2   3   4    1   2   3   4     
e||3---3---3-3---3-|--3---3-3-2-2---|0---0---0-0---0-|--0---0---0-0---||
B||3---3---3-3---3-|--3---3-3-2-2---|0---0---0-0---0-|--0---0---0-0---||
G||4---4---4-4---4-|--4---4-4-3-3---|0---0---0-0---0-|--0---0---0-0---||
D||5---5---5-5---5-|--5---5-5-4-4---|2---2---2-2---2-|--2---2---2-2---||
A||5---5---5-5---5-|--5---5-5-4-4---|2---2---2-2---2-|--2---2---2-2---||
E||3---3---3-3---3-|--3---3-3-2-2---|0---0---0-0---0-|--0---0---0-0---||
   
   D                Bm               G
   1   2   3   4    1   2   3   4    1   2   3   4    1   2   3   4   
e||5---5---5-5---5-|2---2---2-2---2-|3---3---3-3---3-|--3---3---3-3-3-||
B||7---7---7-7---7-|3---3---3-3---3-|3---3---3-3---3-|--3---3---3-3-3-||
G||7---7---7-7---7-|4---4---4-4---4-|4---4---4-4---4-|--4---4---4-4-4-||
D||7---7---7-7---7-|4---4---4-4---4-|5---5---5-5---5-|--5---5---5-5-5-||
A||5---5---5-5---5-|2---2---2-2---2-|5---5---5-5---5-|--5---5---5-5-5-||
E||5---5---5-5---5-|2---2---2-2---2-|3---3---3-3---3-|--3---3---3-3-3-||


RETURN TO REPEAT CHORUS TO END!


Lyrics time!
  
what started at a summer lake
a sentence and a name
if only for a moment's sake
we called it and it came
held it down-the loving heat-
longer than a time
held it down-the loving heat-
softer than a chime

We've seen how Sick Wind blows
but i've got your bovine eyes
i'll love you like i love you
then i'll die

shot the rats and as they ran
from the quarry to the track
chased them as you gave my hand
and never took it back
held it up and felt the wind
blow and miss a chime
found a god and begged it in
to fight your body crime

we've seen how Sick Wind blows
but i've got your bovine eyes
i'll love you like i love you
then i'll die

I relate, kid, but i'm the one who wants to let you wonder
i relate, kid, but i'm the one who wants to let you wonder

We've seen how sick wind blows
but i've got your bovine eyes
i'll love you like i love you
then i'll die
i'll love you like i love you
then i'll die
i'll love you like i love you
then i'll die

   

ENJOY!! Comments or constructive criticism welcome!!

| /  slide up
| \  slide down
| h  hammer-on
| p  pull-off
| ~  vibrato
| +  harmonic
| x  Mute note
=============================================================================

==
Добавлено: 25.07.2012
Другие материалы по этой песне:
  • Аккорды и текст

Страница создана 02.07.2012
http://primanota.ru/land-of-talk/some-are-lakes-chords.htm
Привет, Гость.
Предлагаем пройти революционный курс по гитаре.
Подарок от PrimaNota.Ru, забирай!