PrimaNota.ru - самый крупный в мире бесплатный архив песенных текстов, аккордов, табулатур и нот


Lambchop - Interrupted - текст песни, таба, видео

Регистрация Запомнить меня
Войти через:  Facebook Google Twitter Vk Yandex Mail.ru

Lambchop - Interrupted - текст песни, таба, видео

Печатать
Просмотров: 94
LAMBCHOP - INTERRUPTED

Written by Kurt Wagner
>From 'What Another Man Spills' (1998)

-------------------------------------------------------------------- 


I haven't bothered much with the timing in the intro, but it's 
fairly easy to manage. Also, I haven't included the solo here.
Any corrections or a tab for the solo are much welcome.

The intro tab is, when repeated, pretty much the same. Some minor 
variations, mainly in timing.

Tabbed by Anders Eklund - anek5415@student.uu.se

-------------------------------------------------------------------- 



INTRO

e|---8-9-11-9-8--------8--8-----8-9-8-------8-7--6------------------ 
B|--8-----------11-9---9--8----8------8-----8-7--6---6-8-9-9/11-11-9 
G|-8-------------------8--8---8---------8---8-7--6--6--------------- 


e|--------8--------------8-7--6--------------------------8-----------
B|-8------8---8-9-8------8-7--6---6-8-9-9/11-11-9-8------8---8-9-8---
G|---10---8--8------8----8-7--6--6------------------10---8--8------8-


e|--8-9--------------------6-----------------------------------------
B|--8-9---9-9-9-11-9----9--6-----------------------------------------
G|--8-9--9-----------10----6-----------------------------------------



RIFF (at the end of verse)

e|-6/8/6-      E|-6-6/8/6-
B|-6/8/6-      B|-6-6/8/6-
G|-6/8/6-  or  G|-6-6/8/6-
D|-------      D|---------
A|-------      A|---------
E|-------      E|---------



VERSE CHORDS:

Fm(VIII) Cm Bm Bbm

Cm Bm Bbm Cm C#m7 Bbm(?)



Fm(VIII)         Bbm(?)

e|-8--           e|-6-
B|-9--           B|-6-
G|-10-           G|-6-
D|-10-           D|-8-
A|-8--           A|---
E|-8--           E|---
     
Добавлено: 18.07.2013
Другие материалы по этой песне:
  • Аккорды и текст

Страница создана 15.07.2012
http://primanota.ru/lambchop/interrupted-chords.htm
Привет, Гость.
Предлагаем пройти революционный курс по гитаре.
Подарок от PrimaNota.Ru, забирай!