PrimaNota.ru - самый крупный в мире бесплатный архив песенных текстов, аккордов, табулатур и нот


Lamb Of God - Set To Fail - текст песни, таба, бас-таба, видео

Регистрация Запомнить меня
Войти через:  Facebook Google Twitter Vk Yandex Mail.ru

Lamb Of God - Set To Fail - текст песни, таба, бас-таба, видео

Печатать
Просмотров: 301
LAMB OF GOD - SET TO FAIL

BY: CONOR HAMILL

TUNING: DROP D

INTRO

--------------------------|--------------------------|
--------------------------|--------------------------|
--------------------------|--------------------------|
--------------------------|--------------------------| X 7
-----------3-----------3--|-----------3-----------3--|
--2--2--2--3--2--2--2--3--|--2--2--2--3--2--2--2--3--|
  .  .  .     .  .  .        .  .  .     .  .  .

MAIN RIFF

--------------------------|------------------------|
--------------------------|------------------------|
--------------------------|------------------------|
--------------------------|------------------------|
--2--2--2--2--2--2--2--2--|--2---------------------|
--2--2--2--2--2--2--2--2--|--2---------3--2--0--5~-|

---------------------------|---------------------------|
---------------------------|---------------------------|
---------------------------|---------------------------|
---------------------------|---------------------------|
---------------------------|---------------------------|
--L~----2--2--2--3--0--5~--|--L~----2--2--2--3--0--5~--|

--------------------------|---------------------------|
--------------------------|---------------------------|
--------------------------|---------------------------|
--------------------------|---------------------------|
--------------------------|---------------------------|
--L~----2--2--2--2--2--2--|--0--2--2--2--3--2--0--8~--|

---------------------------|---------------------------|
---------------------------|---------------------------|
---------------------------|---------------------------|
---------------------------|---------------------------|
---------------------------|---------------------------|
--L~----2--2--2--3--0--5~--|--L~----2--2--2--3--0--5~--|

--------------------------|--------------------|
--------------------------|--------------------|
--------------------------|--------------------|
--------------------------|--------------------|
--------------------------|--------------3--2--|
--L~----2--2--2--2--2--2--|--0--2--2--2--3--2--|
                                         .  .
------------------------------------|---------------------------|
------------------------------------|---------------------------|
------------------------------------|---------------------------|
-----7S--------x--------------------|---------------------------|
--0--5S--------x--------------------|---------------------------|
--0--------------2--2--2--3--0--5~--|--L~----2--2--2--3--0--5~--|
  .
--------------------------|---------------------------|
--------------------------|---------------------------|
--------------------------|---------------------------|
--------------------------|---------------------------|
--------------------------|---------------------------|
--L~----2--2--2--2--2--2--|--0--2--2--2--3--2--0--3~--|

---------------------------|--------------------------|
---------------------------|--------------------------|
---------------------------|--------------------------|
---------------------------|--------------------------|
---------------------------|--------------------------|
--L~----2--2--2--3--0--3~--|--L~----2--2--2--3--0--5--|

--------------------------|---------------------------|
--------------------------|---------------------------|
--------------------------|---------------------------|
--------------------------|---------------------------|
--2--2--2--3--3--3--4--4--|--4--5--5--5---------------|
--2--2--2--3--3--3--4--4--|--4--5--5--5--3--2--0--5~--|
  .  .  .  .  .  .  .  .     .  .  .  .  .  .  .
--------------------------|--------------------------|
--------------------------|--------------------------|
--------------------------|--------------------------|
--------------------------|--------------------------|
-----------------3--------|-----3-----------3--------|
--L~----2--2--2--3--2--2--|--2--3--2--2--2--3--2--2--|
        .  .  .     .  .     .     .  .  .     .  .
--------------------------|---------------------------|
--------------------------|---------------------------|
--------------------------|---------------------------|
--------------------------|---------------------------|
-----3-----------3--------|-----3---------------------|
--2--3--2--2--2--3--2--2--|--2--3--2--2--3--2--0--8~--|
  .     .  .  .     .  .     .     .  .
--------------------------|--------------------------|
--------------------------|--------------------------|
--------------------------|--------------------------|
--------------------------|--------------------------|
-----------------3--------|-----3-----------3--------|
--L~----2--2--2--3--2--2--|--2--3--2--2--2--3--2--2--|
        .  .  .     .  .     .     .  .  .     .  .
--------------------------|---------------------------|
--------------------------|---------------------------|
--------------------------|---------------------------|
--------------------------|---------------------------|
-----3-----------3--------|-----3---------------------|
--2--3--2--2--2--3--2--2--|--2--3--2--2--3--2--0--5~--|
  .     .  .  .     .  .     .     .  .
--------------------------|--------------------------|
--------------------------|--------------------------|
--------------------------|--------------------------|
--------------------------|--------------------------|
-----------------3--------|-----3-----------3--------|
--L~----2--2--2--3--2--2--|--2--3--2--2--2--3--2--2--|
        .  .  .     .  .     .     .  .  .     .  .
--------------------------|---------------------------|
--------------------------|---------------------------|
--------------------------|---------------------------|
--------------------------|---------------------------|
-----3-----------3--------|-----3---------------------|
--2--3--2--2--2--3--2--2--|--2--3--2--2--3--2--0--8~--|
  .     .  .  .     .  .     .     .  .
--------------------------|--------------------------|
--------------------------|--------------------------|
--------------------------|--------------------------|
--------------------------|--------------------------|
-----------------3--------|-----3-----------3--------|
--L~----2--2--2--3--2--2--|--2--3--2--2--2--3--2--2--|
        .  .  .     .  .     .     .  .  .     .  .

CHORUS RIFF

--------------------------|--------------------------|----------------------|
--------------------------|--------------------------|----------------------|
--------------------------|--------------------------|----------------------|
--------------------------|--------------------------|-----------5-------7--|
--5-----------5-----5-----|--------------------------|-----------3-------5--|
-----2--0--2-----2-----2--|--5--4--3--0--3--0--6--3--|--0--0--0-------0-----|

---------------------------|------------------------|---------------------------|
---------------------------|------------------------|---------------------------|
---------------------------|------------------------|---------------------------|
---------------------------|------------------------|---------------------------|
-----------------<5>----------|------------------------|------------------------|
--0--0--0--0--0------------|--0--0--0--7----3--7----|--6--3--0--3--5--3--0-3----|

------------------------|---------------------------|---------------------------|
------------------------|---------------------------|---------------------------|
------------------------|---------------------------|---------------------------|
-----------5-------7----|---------------------------|---------------------------|
-----------3-------5----|-----------------<5>----------|------------------------|
--0--0--0-------0-------|--0--0--0--0--0------------|--0--0--0--7----3--7-------|

--------------------------|------------------------|------------------------|
--------------------------|------------------------|------------------------|
--------------------------|------------------------|------------------------|
--------------------------|-----------5-------7----|-----------5-------7----|
--------------------------|-----------3-------5----|-----------3-------5----|
--6--3--0--3--5--3--0--3--|--0--0--0-------0-------|--0--0--0-------0-------|

------------------------|--------------------------|------------------------|
------------------------|--------------------------|------------------------|
------------------------|--------------------------|------------------------|
------------------------|--------------------------|-----------5-------7----|
------------------------|-----------7--6--3--0--3--|-----------3-------5----|
--0--0--0--7----3--7----|--0--0--0--7--6--3--0--3--|--0--0--0-------0-------|

------------------------|--------------------------|------------------------|
------------------------|--------------------------|------------------------|
------------------------|--------------------------|------------------------|
-----------5-------7----|--------------------------|------------------------|
-----------3-------5----|--2--2--2--3--3--3--4--4--|--4--5--5--5------------|
--0--0--0-------0-------|--2--2--2--3--3--3--4--4--|--4--5--5--5------------|
                           .  .  .  .  .  .  .  .     .  .  .  .

REPEAT THE ABOVE RIFFS


FADED OUT GUITAR RIFF ALSO USED FOR RYTHM GUITAR FOR SOLO

--------------------------|--------------------------|
--------------------------|--------------------------|
--------------------------|--------------------------|
--------------------------|--------------5--5--5--5--|
--2--2--2--3--3--3--4--4--|--4--5--5--5--3--3--3--3--|
--2--2--2--3--3--3--4--4--|--4--5--5--5--------------|
  .  .  .  .  .  .  .  .     .  .  .  .
-----------------------------|-----------------------------|
-----------------------------|-----------------------------|
-----------------------------|-----------------------------|
-----------------------------|-----------------------------|
-----------------------------|-----------------------------|
--2--2--2--2--2--2--2--2--0--|--2--2--2--2--2--2--2--2--0--|
  .  .  .  .  .  .  .  .  .     .  .  .  .  .  .  .  .  .
--------------------------|--------------------------|
--------------------------|--------------------------|
--------------------------|--------------------------|
--------------------------|--------------------------|
--------------------------|--------------0-----------|
--2--2--2--2--2--2--2--0--|--2--5--2--0-----5--2--5--| REPEAT
  .  .  .  .  .  .  .  .     .  .  .  .  .  .  .  .

SOLO

--------------------------|---------------------------------|
--------------8-----------|--------------8------------------|
--9--7--9--7-----9--7--9--|-----L--9--9--9-----9--<9>-------|
--------------------------|---------------------------------|
--------------------------|---------------------------------|
--------------------------|---------------------------------|

----------------------------|-----------------------------|
---------10--8-----8--------|----------------17------15b--|
--L~--9---------9-----9--7--|--9~--------L~------16-------|
----------------------------|-----------------------------|
----------------------------|-----------------------------|
----------------------------|-----------------------------|

------------------------|--------------------------------------------------|
---L--------15b~--------|--15--12--11--12--15--12--15--12--11--12--15--12--|
------------------------|--------------------------------------------------|
------------------------|--------------------------------------------------|
------------------------|--------------------------------------------------|
------------------------|--------------------------------------------------|

---------------------------------------------|------------------------------|
--15--12--11--13--10--9--12--9--8--11--8--7--|--<11b>-----------------------|
---------------------------------------------|------------------------------|
---------------------------------------------|------------------------------|
---------------------------------------------|------------------------------|
---------------------------------------------|------------------------------|

--17b--------17b--17b-----17b--|-----17b-----17b-----17b-----17b--|
-------------------------------|----------------------------------|
-------------------------------|----------------------------------|
-------------------------------|----------------------------------|
-------------------------------|----------------------------------|
-------------------------------|----------------------------------|

-----17b----15----17--15----------|---------------------|
---------------17---------17--15--|--17~----------------|
----------------------------------|---------------------|
----------------------------------|---------------------|
----------------------------------|---------------------|
----------------------------------|---------------------|

--------------------------------------------------|
--------------------------------------------------|
--------------11--12--14--16--15--14--15--14--13--|
--11--12--14--------------------------------------|
--------------------------------------------------|
--------------------------------------------------|

--------------------------------------------------|--17b~----------------|
--------------11--12--14--12--13--15--13--14--17--|----------------------|
--11--12--14--------------------------------------|----------------------|
--------------------------------------------------|----------------------|
--------------------------------------------------|----------------------|
--------------------------------------------------|----------------------|

REPEAT CHORUS AND MAIN RIFF AND THEN CONTINUE

OUTRO

--------------------------|--------------------------|
--------------------------|--------------------------|
--------------------------|--------------------------|
--------------------------|--------------5--5--5-----|
--2--2--2--3--3--3--4--4--|--4--5--5--5--3--3--3--2--|
--2--2--2--3--3--3--4--4--|--4--5--5--5-----------2--| LET LAST NOTE RING
  .  .  .  .  .  .  .  .     .  .  .  .


| /  slide up
| \  slide down
| h  hammer-on
| p  pull-off
| ~  vibrato
| +  harmonic
| .  palm mute
Добавлено: 02.06.2012
Другие материалы по этой песне:

Страница создана 25.03.2012
http://primanota.ru/lamb-of-god/set-to-fail-chords.htm
Привет, Гость.
Предлагаем пройти революционный курс по гитаре.
Подарок от PrimaNota.Ru, забирай!