PrimaNota.ru - самый крупный в мире бесплатный архив песенных текстов, аккордов, табулатур и нот


Lamb Of God - Requiem - текст песни, таба, бас-таба, видео

Регистрация Запомнить меня
Войти через:  Facebook Google Twitter Vk Yandex Mail.ru

Lamb Of God - Requiem - текст песни, таба, бас-таба, видео

Печатать
Просмотров: 250
Уроки эстрадного вокала в Санкт-Петербурге
This is the first guitar part, apply palm mutes where necessary.  The rhythms
shouldn't be too difficult to figure out.

KEY:
*  Stop Note
                                                                        
E  :----------------|------------|------------|------------|------------|
B  :----------------|------------|------------|------------|------------|
G  :----------------|------------|------------|------------|------------|
D  :----------------|------------|------------|------------|------------|
A  :----------------|--8-8-*-8-8-|--8-8-*-8-8-|--7-7-*-7-7-|--5-5-*-5-4-|
D  :----------------|0-----------|0-----------|0-----------|0-----------|

                                                                    
E  :------------|------------|------------|------------|------------|
B  :------------|------------|------------|------------|------------|
G  :------------|------------|------------|------------|------------|
D  :------------|------------|------------|------------|------------|
A  :--8-8-*-8-8-|--8-8-*-8-8-|--7-7-*-7-7-|2-5-5-*-5-4-|--8-8-*-8-8-|
D  :0-----------|0-----------|0-6-6-*-6-5-|0-----------|0-----------|

                                                                    
E  :------------|------------|--------|----------------|------------|
B  :------------|------------|--------|----------------|------------|
G  :------------|------------|--------|----------------|------------|
D  :------------|------------|--------|----------------|------------|
A  :--8-8-*-8-8-|--7-7-*-7-7-|--5-5-*-|--------2-2-----|2-2-----2-2-|
D  :0-----------|0-----------|0-------|0-0-0-0-3-2---0-|3-2---0-3-2-|

                                                               
E  :------------|----------------|----------------|------------|
B  :------------|----------------|----------------|------------|
G  :------------|--10-10---10-10-|--10-10---10-10-|--9-9---9-9-|
D  :------------|----------------|----------------|------------|
A  :------4-4-4-|---8--8----8--8-|---8--8----8--8-|--7-7---7-7-|
D  :--0-3-4-4-4-|0-------0-------|0-------0-------|0-----0-----|

                                                                  
E  :------------|----------------|----------------|---------------|
B  :------------|----------------|----------------|---------------|
G  :--7-7---7-6-|--10-10---10-10-|--10-10---10-10-|--7-7----------|
D  :------------|----------------|----------------|---------------|
A  :--5-5---5-4-|---8--8----8--8-|---8--8----8--8-|--5-5----------|
D  :0-----0-----|0-------0-------|0-------0-------|0-----0-7-10-7-|

                                                               
E  :------------|----------------|----------------|------------|
B  :------------|----------------|----------------|------------|
G  :------------|--10-10---10-10-|--10-10---10-10-|--9-9---9-9-|
D  :------7-----|----------------|----------------|------------|
A  :------------|---8--8----8--8-|---8--8----8--8-|--7-7---7-7-|
D  :0-7-0---7---|0-------0-------|0-------0-------|0-----0-----|

                                                                   
E  :------------|----------------|----------------|----------------|
B  :------------|----------------|----------------|----------------|
G  :--7-7---7-7-|----------------|----------------|----------------|
D  :------------|----------------|----------------|----------------|
A  :--5-5---5-5-|2-2-----2-2-----|2-2-------4-4-4-|1-0-----------1-|
D  :0-----0-----|3-2---0-3-2---0-|3-2---0-3-4-4-4-|1-0---0-0-0-0-1-|

                                                                       
E  :----------------|----------------|----------------|----------------|
B  :----------------|----------------|----------------|----------------|
G  :----------------|----------------|----------------|----------------|
D  :----------------|----------------|----------------|----------------|
A  :------1-------1-|4-------------4-|1---------------|0-------------1-|
D  :0-0-0-1-0-0-0-1-|4-4-4-4-4-4-4-4-|1-1-1-1-1-1-1-1-|0-------0-0-0-1-|

                                                                       
E  :----------------|----------------|----------------|----------------|
B  :----------------|----------------|----------------|----------------|
G  :----------------|----------------|----------------|----------------|
D  :----------------|--------------6-|----------------|----------------|
A  :4-------------8-|--------------6-|--------------4-|1-----4-1-----1-|
D  :4-4-4-7-4-7-8---|--7-4-6-7-6-4-6-|--0-0-0-0-0-0-4-|1-0-0-4-1-0-0-1-|

                                                                       
E  :----------------|----------------|----------------|----------------|
B  :----------------|----------------|----------------|----------------|
G  :----------------|----------------|----------------|----------------|
D  :----------------|----------------|----------------|----------------|
A  :4-------------4-|1---------------|0-------------1-|4-------------8-|
D  :4-4-4-4-4-4-4-4-|1-1-1-1-1-1-1-1-|0-------0-0-0-1-|4-4-4-7-4-7-8---|

                                                                       
E  :----------------|----------------|----------------|----------------|
B  :----------------|----------------|----------------|----------------|
G  :----------------|----------------|----------------|----------------|
D  :--------------8-|----------------|----------------|----------------|
A  :--------------6-|--1-1-1-1-1-1-1-|1-1-1-1-1-1-1-1-|4-4-4-4-4-6-3-3-|
D  :--7-4-6-7-6-4---|--1-1-1-1-1-1-1-|1-1-1-1-1-1-1-1-|4-4-4-4-4-------|

                                                               
E  :--------------------|------------|------------|------------|
B  :--------------------|------------|------------|------------|
G  :--------------------|------------|------------|------------|
D  :---------------10---|------------|------------|------------|
A  :-----6----10-9------|--8-8-*-8-8-|--8-8-*-8-8-|--7-7-*-7-7-|
D  :--10---10---------0-|------------|0-----------|0-----------|

                                                                    
E  :------------|------------|------------|------------|------------|
B  :------------|------------|------------|------------|------------|
G  :------------|------------|------------|------------|------------|
D  :------------|------------|------------|------------|------------|
A  :--5-5-*-5-4-|--8-8-*-8-8-|--8-8-*-8-8-|--7-7-*-7-7-|2-5-5-*-5-4-|
D  :0-----------|0-----------|0-----------|0-6-6-*-6-5-|0-----------|

                                                                         
E  :------------|------------|------------|--------|------------|--------|
B  :------------|------------|------------|--------|------------|--------|
G  :------------|------------|------------|--------|------------|--------|
D  :------------|------------|------------|--------|------------|--------|
A  :--8-8-*-8-8-|--8-8-*-8-8-|--7-7-*-7-7-|--5-5-*-|--------2-2-|----2-2-|
D  :0-----------|0-----------|0-----------|0-------|0-0-0-0-3-2-|--0-3-2-|

                                                                
E  :--------|------------|------------|------------|------------|
B  :--------|------------|------------|------------|------------|
G  :--------|------------|------------|------------|------------|
D  :--------|------------|------------|------------|------------|
A  :----2-2-|------4-4-4-|1-0---------|--1-------1-|------1-4---|
D  :--0-3-2-|--0-3-4-4-4-|1-0---0-0-0-|0-1-0-0-0-1-|0-0-0-1-4-4-|

                                                                    
E  :------------|------------|------------|------------|------------|
B  :------------|------------|------------|------------|------------|
G  :------------|------------|------------|------------|------------|
D  :------------|------------|------------|------------|------------|
A  :----------4-|1-----------|----0-------|------1-4---|----------8-|
D  :4-4-4-4-4-4-|1-1-1-1-1-1-|1-1-0-------|0-0-0-1-4-4-|4-7-4-7-8---|

                                                                    
E  :------------|------------|------------|------------|------------|
B  :------------|------------|------------|------------|------------|
G  :------------|------------|------------|------------|------------|
D  :------------|--6---------|------------|------------|------------|
A  :------------|--6---------|------4-1---|--4-1-----1-|4-----------|
D  :--7-4-6-7-6-|4-6---0-0-0-|0-0-0-4-1-0-|0-4-1-0-0-1-|4-4-4-4-4-4-|

                                                                    
E  :------------|------------|------------|------------|------------|
B  :------------|------------|------------|------------|------------|
G  :------------|------------|------------|------------|------------|
D  :------------|------------|------------|------------|------------|
A  :--4-1-------|--------0---|----------1-|4-----------|--8---------|
D  :4-4-1-1-1-1-|1-1-1-1-0---|----0-0-0-1-|4-4-4-7-4-7-|8-----7-4-6-|

                                                                     
E  :------------|------------|------------|------------|-------------|
B  :------------|------------|------------|------------|-------------|
G  :------------|------------|------------|------------|-------------|
D  :------8-----|------------|------------|------------|-------------|
A  :------6---1-|1-1-1-1-1-1-|1-1-1-1-1-1-|1-1-4-4-4-4-|4-6-3-3------|
D  :7-6-4-----1-|1-1-1-1-1-1-|1-1-1-1-1-1-|1-1-4-4-4-4-|4---------10-|

                                                                       
E  :---------------|------------|------------|------------|------------|
B  :---------------|------------|------------|------------|------------|
G  :---------------|------------|------------|------------|------------|
D  :----------10---|------------|------------|------------|------------|
A  :6----10-9------|--8-8-*-8-8-|--8-8-*-8-8-|--7-7-*-7-7-|--5-5-*-5-4-|
D  :--10---------0-|------------|0-----------|0-----------|0-----------|

                                                                    
E  :------------|------------|------------|------------|------------|
B  :------------|------------|------------|------------|------------|
G  :------------|------------|------------|------------|------------|
D  :------------|------------|------------|------------|------------|
A  :--8-8-*-8-8-|--8-8-*-8-8-|--7-7-*-7-7-|2-5-5-*-5-4-|--8-8-*-8-8-|
D  :0-----------|0-----------|0-6-6-*-6-5-|0-----------|0-----------|

                                          not sure         
E  :------------|------------|------------|----------------|
B  :------------|------------|------------|----------------|
G  :------------|------------|------------|----------------|
D  :------------|------------|------------|----------------|
A  :--8-8-*-8-8-|--7-7-*-7-7-|--5-5-*-----|----------------|
D  :0-----------|0-----------|0-------0-0-|4-3-1-3-4-1-4-1-|

                     as many times as necessary                           
E  :----------------|------------|------------|------------|------------|
B  :----------------|------------|------------|------------|------------|
G  :----------------|------------|------------|------------|------------|
D  :----------------|------------|------------|------------|------------|
A  :----------------|------------|------------|------------|------------|
D  :4-3-1-3-4-3-1-3-|0---0---0---|0---0---0---|0---0---0---|0---0---0---|
      
E  :------------|------------|------------|------------|------------|
B  :------------|------------|------------|------------|------------|
G  :------------|------------|------------|------------|------------|
D  :------------|------------|------------|------------|------------|
A  :------------|------------|------------|------------|------------|
D  :0---0---0---|0---0---0---|0---0---0---|0---0---0---|0---0---0---|
                                          
E  :------------|------------|----------------|----------------|
B  :------------|------------|----------------|----------------|
G  :------------|------------|----------------|----------------|
D  :------------|------------|----------------|----------------|
A  :------------|------------|----------------|----------------|
D  :0---0---0---|0---0---0---|0---0---0---0---|0---0---0---0---|

E  :----------------|----------------|----------------|----------------|
B  :----------------|----------------|----------------|----------------|
G  :----------------|----------------|----------------|----------------|
D  :----------------|----------------|----------------|----------------|
A  :----------------|----------------|----------------|------------7---|
D  :0---0---0---0---|0---0---0---0---|0---0---0---0---|0-0-0-0-0-0-----|

                                                               
E  :----------------|----------------|------------|------------|
B  :----------------|----------------|------------|------------|
G  :----------------|----------------|------------|------------|
D  :----------------|----------------|------------|------------|
A  :--------7-------|----5-8-4-7-4-3-|------------|7-----------|
D  :--0-0-0-------0-|0-0-------------|0-0-0-0-0-0-|------0-0-0-|

                                                                    
E  :------------|------------|------------|------------|------------|
B  :------------|------------|------------|------------|------------|
G  :------------|------------|------------|------------|------------|
D  :------------|------------|------------|------------|------------|
A  :7-----------|5-8-4-7-4-3-|------------|7-----------|7-----------|
D  :------0-0-0-|------------|0-0-0-0-0-0-|------0-0-0-|------0-0-0-|

                                                                    
E  :------------|------------|------------|------------|------------|
B  :------------|------------|------------|------------|------------|
G  :------------|------------|------------|------------|------------|
D  :------------|------------|------------|------------|------------|
A  :5-8-4-7-4-3-|------------|7-----------|7-----------|5-8-4-7-4-3-|
D  :------------|0-0-0-0-0-0-|------0-0-0-|------0-0-0-|------------|
                                                                 
E  :------------|------------|------------|------------|------------|
B  :------------|------------|------------|------------|------------|
G  :------------|------------|------------|------------|------------|
D  :------------|------------|------------|------------|------------|
A  :------------|------------|------------|------------|------------|
D  :0---0---0---|0---0---0---|0---0---0---|0---0---0---|0---0---0---|
                                                            
                                                                   
E  :------------|------------|-------------|------------------|
B  :------------|------------|18-----------|------------------|
G  :------------|------------|-------------|18-17-15-18-17-15-|
D  :------------|------------|-------------|------------------|
A  :------------|------------|-------------|------------------|
D  :0---0---0---|0---0---0---|-------------|------------------|

                                                           
E  :------------------|-----------------|------------------|
B  :------------------|-----------------|------------------|
G  :16-15-13-15-13----|------12-13------|------------------|
D  :---------------15-|12-15---------15-|17-15-13-12-13-15-|
A  :------------------|-----------------|------------------|
D  :------------------|-----------------|------------------|

                                                                        
E  :------------------|------------------|16-----------|----------------|
B  :---------------16-|---------15-17-18-|-------------|16-15-13-18-----|
G  :12-13-15-17-18----|15-17-18----------|-------------|----------------|
D  :------------------|------------------|-------------|----------------|
A  :------------------|------------------|-------------|----------------|
D  :------------------|------------------|-------------|----------------|

                                                                     
E  :------------------|-------------|---13----15-12-13-|18-----------|
B  :16-15-13-16-15-13-|18-----------|14----17----------|-------------|
G  :------------------|-------------|------------------|-------------|
D  :------------------|-------------|------------------|-------------|
A  :------------------|-------------|------------------|-------------|
D  :------------------|-------------|------------------|-------------|

                                                                           
E  :------------------|------------------|------------------|--------------|
B  :18-17-15-17-15-13-|------------------|------------------|--------------|
G  :------------------|13-15-12-13-12----|13-15-13-12-13-15-|17------------|
D  :------------------|---------------15-|------------------|---------18---|
A  :------------------|------------------|------------------|--------------|
D  :------------------|------------------|------------------|--------------|

                                                                  
E  :---------------|---------------|--------------|18---17--------|
B  :---------------|---------------|--------------|---------------|
G  :--16---------15|--------14-----|--13----------|---------------|
D  :--------17-----|---16--------15|-------14-----|----------13---|
A  :---------------|---------------|--------------|---------------|
D  :---------------|---------------|--------------|---------------|

                                                             
E  :---------------|--------------|-------------|------------|
B  :---------------|--------------|-------------|------------|
G  :12---13---12---|13---------12-|13-----------|------------|
D  :---------------|--------------|-------------|4-----------|
A  :---------------|--------------|-------------|------------|
D  :---------------|--------------|-------------|--0-0-3-5-7-|

                                                                 
E  :----------------|------------|-----------------|-------------|
B  :----------------|------------|-----------------|-------------|
G  :----------------|------------|6-p7-p6----------|-------------|
D  :5-p7-p5---------|4-----------|-----------------|-------------|
A  :----------------|------------|-----------------|-------5-6-8-|
D  :--------7-5-3-2-|--0-0-3-5-7-|--------10-8-7-8-|6-7-10-------|

                                                                 
E  :-----------------|12-12-12-12-11-11-11-11------|17-----------|
B  :-----------------|12-12-12-12-12-12-12-12------|-------------|
G  :9-p10-p9-7-9-7---|-----------------------------|-------------|
D  :---------------9-|------------------------12-12|-------------|
A  :-----------------|-----------------------------|-------------|
D  :-----------------|-----------------------------|-------------|

                                                                    
E  :------------|------------|-----------*|------------|------------|
B  :------------|------------|------------|------------|------------|
G  :------------|------------|------------|------------|------------|
D  :------------|------------|------------|------------|------------|
A  :------------|------------|------------|------------|------------|
D  :------------|------------|------------|------------|0-0-0-0-0-0-|

                                                                    
E  :------------|------------|------------|------------|------------|
B  :------------|------------|------------|------------|------------|
G  :------------|------------|------------|------------|------------|
D  :------------|------------|------------|------------|------------|
A  :5-----------|5-----------|--4---4-----|1-1-1-1-1-1-|1-1-1-1-1-1-|
D  :------0-0-0-|------0-0-0-|3---7---8-7-|1-1-1-1-1-1-|1-1-1-1-1-1-|

                                                                     
E  :------------|------------|-------------|------------|------------|
B  :------------|------------|-------------|------------|------------|
G  :------------|------------|11-----------|------------|8-----------|
D  :------------|------------|-------------|------------|------------|
A  :1-4-4-4-4-4-|--4---4-----|-------------|------------|------------|
D  :1-4-4-4-4-4-|3---7---8-7-|-------------|------------|------------|

                                                                     
E  :------------|-------------|------------|------------|------------|
B  :------------|-------------|------------|------------|------------|
G  :------------|10-----------|------------|------------|------------|
D  :------------|-------------|------------|------------|------------|
A  :------------|-------------|------------|------------|------------|
D  :------------|-------------|------------|------------|------------|

                                                                     
E  :-------------|------------|------------|------------|------------|
B  :-------------|------------|------------|------------|------------|
G  :11-----------|------------|8-----------|------------|7-----------|
D  :-------------|------------|------------|------------|------------|
A  :-------------|------------|------------|------------|------------|
D  :-------------|------------|------------|------------|------------|

                                                                      
E  :------------|------------|-------------|-------------|------------|
B  :------------|------------|-------------|-------------|------------|
G  :------------|------------|-------------|11-----------|------------|
D  :------------|------------|-------------|-------------|------------|
A  :------------|------------|-------------|-------------|------------|
D  :------------|3-0-0-3-0-0-|3-0-0-5-7-10-|-------------|------------|

                                                                     
E  :------------|------------|-------------|------------|------------|
B  :------------|------------|-------------|------------|------------|
G  :8-----------|------------|10-----------|------------|------------|
D  :------------|------------|-------------|------------|------------|
A  :------------|------------|-------------|------------|------------|
D  :------------|------------|-------------|------------|------------|

                                                                     
E  :------------|-------------|------------|------------|------------|
B  :------------|-------------|------------|------------|------------|
G  :------------|11-----------|------------|8-----------|------------|
D  :------------|-------------|------------|------------|------------|
A  :------------|-------------|------------|------------|------------|
D  :------------|-------------|------------|------------|------------|

                                                                           
E  :------------|------------|------------|-------------|10-10-10-10-10-10-|
B  :------------|------------|------------|-------------|------------------|
G  :7-----------|------------|------------|-------------|------------------|
D  :------------|------------|------------|-------------|------------------|
A  :------------|------------|------------|-------------|------------------|
D  :------------|------------|3-0-0-3-0-0-|3-0-0-5-7-10-|------------------|

                                                                          
E  :10-10-10-10-10-10-|11-11-11-11-11-11-|11-11-11-11-11-11-|10-----------|
B  :------------------|------------------|------------------|-------------|
G  :------------------|------------------|------------------|-------------|
D  :------------------|------------------|------------------|-------------|
A  :------------------|------------------|------------------|-------------|
D  :------------------|------------------|------------------|-------------|

                                                             
E  :------------|------------|------------|10-10-10-10-10-10-|
B  :------------|------------|------------|------------------|
G  :------------|------------|------------|------------------|
D  :------------|------------|------------|------------------|
A  :------------|------------|------------|------------------|
D  :------------|------------|------------|------------------|

                                                                          
E  :10-10-10-10-10-10-|11-11-11-11-11-11-|11-11-11-11-11-11-|10-----------|
B  :------------------|------------------|------------------|-------------|
G  :------------------|------------------|------------------|-------------|
D  :------------------|------------------|------------------|-------------|
A  :------------------|------------------|------------------|-------------|
D  :------------------|------------------|------------------|-------------|

                                                                    
E  :------------|------------|------------|------------|------------|
B  :------------|------------|------------|------------|------------|
G  :------------|------------|------------|8-8-8-8-8-8-|8-8-8-8-8-8-|
D  :------------|------------|------------|------------|------------|
A  :------------|------------|------------|------------|------------|
D  :------------|------------|------------|------------|------------|

                                                                   
E  :------------------|------------------|------------|------------|
B  :------------------|------------------|------------|------------|
G  :11-11-11-11-11-11-|11-11-11-11-11-11-|8-----------|------------|
D  :------------------|------------------|------------|------------|
A  :------------------|------------------|------------|------------|
D  :------------------|------------------|------------|------------|

                                                                          
E  :------------|------------|------------|------------|------------------|
B  :------------|------------|------------|------------|------------------|
G  :------------|------------|8-8-8-8-8-8-|8-8-8-8-8-8-|11-11-11-11-11-11-|
D  :------------|------------|------------|------------|------------------|
A  :------------|------------|------------|------------|------------------|
D  :------------|------------|------------|------------|------------------|

                                                                          
E  :------------------|------------|------------|------------|------------|
B  :------------------|------------|------------|------------|------------|
G  :11-11-11-11-11-11-|------------|------------|------------|------------|
D  :------------------|------------|------------|------------|------------|
A  :------------------|0---0---0---|0---0---0---|0---0---0---|0---0---0---|
D  :------------------|0---0---0---|0---0---0---|0---0---0---|0---0---0---|

                
E  :------------|
B  :------------|
G  :------------|
D  :------------|
A  :0---*-------|
D  :0---*-------|
Добавлено: 27.05.2012
Другие материалы по этой песне:

Страница создана 21.03.2012
http://primanota.ru/lamb-of-god/requiem-chords.htm
Привет, Гость.
Предлагаем пройти революционный курс по гитаре.
Подарок от PrimaNota.Ru, забирай!