PrimaNota.ru - самый крупный в мире бесплатный архив песенных текстов, аккордов, табулатур и нот


Lamb Of God - Remorse Is For The Dead - текст песни, таба, бас-таба, видео

Регистрация Запомнить меня
Войти через:  Facebook Google Twitter Vk Yandex Mail.ru

Lamb Of God - Remorse Is For The Dead - текст песни, таба, бас-таба, видео

Печатать
Просмотров: 276
                          Remorse is for the dead                             


                                                                     Lamb of God
Mark Morton



     Tempo 127                                   
     E         E  E  E  E  E  E  E  E  E  E  E   
E||---------------------------------------------|
B||---------------------------------------------|
G||---------------------------------------------|
D||---------------7-----7-----------7-----7-----|
A||------------5-----5-----5-----5-----5-----5--|
D||--0------------------------7-----------------|


  E  E  E  E  E  E  E  E  E  E  E  E     E  E  E  E  E  E  E  E  E  E  E  E   
--------------------------------------|--------------------------------------|
--------------------------------------|--------------------------------------|
--------------------------------------|--------------------------------------|
--------8-----8-----------7-----5-----|--------7-----7-----------5-----5-----|
-----5-----5-----5-----5-----5-----5--|-----5-----5-----5-----5-----5-----5--|
--8-----------------5-----------------|--7--------------0--3-----------------|


  E  E  E  E  E  E  E  E  E  E  E  E     E  E  E  E  E  E  E  E  E  E  E  E   
--------------------------------------|--------------------------------------|
--------------------------------------|--------------------------------------|
--------------------------2-----0-----|--------------------------------------|
--------7-----7--8-----0-----0-----0--|--------7-----7-----------7-----7-----|
-----5-----5--------------------------|-----5-----5-----5-----5-----5-----5--|
--5-----------------1-----------------|--0-----------------7-----------------|


  E  E  E  E  E  E  E  E  E  E  E  E     E  E  E  E  E  E  E  E  E  E  E  E   
--------------------------------------|--------------------------------------|
--------------------------------------|--------------------------------------|
--------------------------------------|--------------------------------------|
--------8-----8-----------7-----5-----|--------7-----7-----------5-----5-----|
-----5-----5-----5-----5-----5-----5--|-----5-----5-----5-----5-----5-----5--|
--8-----------------5-----------------|--7--------------0--3-----------------|


  E  E  E  E  E  E  E  E  E  E  E  E     E  E  E  E  E  E  E  E  E  E  E  E   
--------------------------------------|--------------------------------------|
--------------------------------------|--------------------------------------|
--------------------------2-----0-----|--------------------------------------|
--------7-----7--8-----0-----0-----0--|--------7-----7-----------7-----7-----|
-----5-----5--------------------------|-----5-----5-----5-----5-----5-----5--|
--5-----------------1-----------------|--0-----------------7-----------------|


  E  E  E  E  E  E  E  E  E  E  E  E     E  E  E  E  E  E  E  E  E  E  E  E   
--------------------------------------|--------------------------------------|
--------------------------------------|--------------------------------------|
--------------------------------------|--------------------------------------|
--------8-----8-----------7-----5-----|--------7-----7-----------5-----5-----|
-----5-----5-----5-----5-----5-----5--|-----5-----5-----5-----5-----5-----5--|
--8-----------------5-----------------|--7--------------0--3-----------------|


  E  E  E  E  E  E  E  E  E  E  E  E     E  E  E  E  E  E  E  E  E  E  E  E   
--------------------------------------|--------------------------------------|
--------------------------------------|--------------------------------------|
--------------------------2-----0-----|--------------------------------------|
--------7-----7--8-----0-----0-----0--|--------7-----7-----------7-----7-----|
-----5-----5--------------------------|-----5-----5-----5-----5-----5-----5--|
--5-----------------1-----------------|--0-----------------7-----------------|


  E  E  E  E  E  E  E  E  E  E  E  E     E  E  E  E  E  E  E  E  E  E  E  E   
--------------------------------------|--------------------------------------|
--------------------------------------|--------------------------------------|
--------------------------------------|--------------------------------------|
--------8-----8-----------7-----5-----|--------7-----7-----------5-----5-----|
-----5-----5-----5-----5-----5-----5--|-----5-----5-----5-----5-----5-----5--|
--8-----------------5-----------------|--7--------------0--3-----------------|


  E  E  E  E  E  E  E  E  E  E  E  E     E  E  E  E  E  E  E  E  E  E  E  E   
--------------------------------------|--------------------------------------|
--------------------------------------|--------------------------------------|
--------------------------2-----0-----|--------------------------------------|
--------7-----7--8-----0-----0-----0--|--------7-----7-----------7-----7-----|
-----5-----5--------------------------|-----5-----5-----5-----5-----5-----5--|
--5-----------------1-----------------|--0-----------------7-----------------|


  E  E  E  E  E  E  E  E  E  E  E  E     E  E  E  E  E  E  E  E  E  E  E  E   
--------------------------------------|--------------------------------------|
--------------------------------------|--------------------------------------|
--------------------------------------|--------------------------------------|
--------8-----8-----------7-----5-----|--------7-----7-----------5-----5-----|
-----5-----5-----5-----5-----5-----5--|-----5-----5-----5-----5-----5-----5--|
--8-----------------5-----------------|--7--------------0--3-----------------|


  E  E  E  E  E  E  E  E  E  E  E  E     E  E  E  E  E  E  E  E  E  E  E  E   
--------------------------------------|--------------------------------------|
--------------------------------------|--------------------------------------|
--------------------------2-----0-----|--------------------------------------|
--------7-----7--8-----0-----0-----0--|--------7-----7-----------7-----7-----|
-----5-----5--------------------------|-----5-----5-----5-----5-----5-----5--|
--5-----------------1-----------------|--0-----------------7-----------------|


  E  E  E  E  E  E  E  E  E  E  E  E     E  E  E  E  E  E  E  E  E  E  E  E   
--------------------------------------|--------------------------------------|
--------------------------------------|--------------------------------------|
--------------------------------------|--------------------------------------|
--------8-----8-----------7-----5-----|--------7-----7-----------5-----5-----|
-----5-----5-----5-----5-----5-----5--|-----5-----5-----5-----5-----5-----5--|
--8-----------------5-----------------|--7--------------0--3-----------------|


  E  E  E  E  E  E  E  E  E  E  E  E     E  E  E  E  E  E  E  E  E  E  E  E   
--------------------------------------|--------------------------------------|
--------------------------------------|--------------------------------------|
--------------------------2-----0-----|--------2-----0-----------2-----0-----|
--------7-----7--8-----0-----0-----0--|-----0-----0-----0-----0-----0-----0--|
-----5-----5--------------------------|--------------------------------------|
--5-----------------1-----------------|--1-----------------1-----------------|


  E  E  E  E  E  E  E  E  E  E  E  E     W.                
--------------------------------------|-------------------|
--------------------------------------|-------------------|
--------2-----0-----------2-----0--L--|--L----------------|
-----0-----0-----0-----0-----0--------|-------------------|
--------------------------------------|-------------------|
--1-----------------1-----------------|-------------------|


  Tempo 155                                               
  PM        PM PM PM              PM PM PM PM PM   PM PM  
  E         E  E  E  E  E  E   E  S  S  S  S  S  S S  S   
---------------------------------------------------------|
---------------------------------------------------------|
---------------------------------------------------------|
---------------------------------------------------------|
--0---------0--0--0--3--0--3S--6--0--0--0--0--0----0--0--|
--0---------0--0--0--3--0--3S--6--0--0--0--0--0----0--0--|


    PM PM   PM PM PM PM PM PM PM PM PM PM PM PM              
  S S  S  S S  S  S  S  S  S  S  S  S  S  S  S  E  E  E  E   
------------------------------------------------------------|
------------------------------------------------------------|
------------------------------------------------------------|
------------------------------------------------------------|
----0--0----0--0--0--0--0--0--0--0--0--0--0--0--3--0--3--6--|
----0--0----0--0--0--0--0--0--0--0--0--0--0--0--3--0--3--6--|


                             PM PM PM PM              PM PM PM PM PM   PM PM  
  E  E  E  E  E  E  E  E     E  E  E  E  E  E  E   E  S  S  S  S  S  S S  S   
--------------------------|--------------------------------------------------|
--------------------------|--------------------------------------------------|
--------------------------|--------------------------------------------------|
--------------------------|--------------------------------------------------|
--0--3--2--0--2--1--0--1--|--0--0--0--0--3--0--3S--6--0--0--0--0--0----0--0--|
--0--3--2--0--2--1--0--1--|--0--0--0--0--3--0--3S--6--0--0--0--0--0----0--0--|


    PM PM   PM PM PM PM PM PM PM PM PM PM PM PM              
  S S  S  S S  S  S  S  S  S  S  S  S  S  S  S  E  E  E  E   
------------------------------------------------------------|
------------------------------------------------------------|
------------------------------------------------------------|
------------------------------------------------------------|
----0--0----0--0--0--0--0--0--0--0--0--0--0--0--3--0--3--6--|
----0--0----0--0--0--0--0--0--0--0--0--0--0--0--3--0--3--6--|


                             PM PM PM PM              PM PM PM PM PM   PM PM  
  E  E  E  E  E  E  E  E     E  E  E  E  E  E  E   E  S  S  S  S  S  S S  S   
--------------------------|--------------------------------------------------|
--------------------------|--------------------------------------------------|
--------------------------|--------------------------------------------------|
--------------------------|--------------------------------------------------|
--0--3--2--0--2--1--0--1--|--0--0--0--0--3--0--3S--6--0--0--0--0--0----0--0--|
--0--3--2--0--2--1--0--1--|--0--0--0--0--3--0--3S--6--0--0--0--0--0----0--0--|


    PM PM   PM PM PM PM PM PM PM PM PM PM PM PM              
  S S  S  S S  S  S  S  S  S  S  S  S  S  S  S  E  E  E  E   
------------------------------------------------------------|
------------------------------------------------------------|
------------------------------------------------------------|
------------------------------------------------------------|
----0--0----0--0--0--0--0--0--0--0--0--0--0--0--3--0--3--6--|
----0--0----0--0--0--0--0--0--0--0--0--0--0--0--3--0--3--6--|


                             PM PM PM PM              PM PM PM PM PM   PM PM  
  E  E  E  E  E  E  E  E     E  E  E  E  E  E  E   E  S  S  S  S  S  S S  S   
--------------------------|--------------------------------------------------|
--------------------------|--------------------------------------------------|
--------------------------|--------------------------------------------------|
--------------------------|--------------------------------------------------|
--0--3--2--0--2--1--0--1--|--0--0--0--0--3--0--3S--6--0--0--0--0--0----0--0--|
--0--3--2--0--2--1--0--1--|--0--0--0--0--3--0--3S--6--0--0--0--0--0----0--0--|


    PM PM   PM PM PM PM PM PM PM PM PM PM PM PM              
  S S  S  S S  S  S  S  S  S  S  S  S  S  S  S  E  E  E  E   
------------------------------------------------------------|
------------------------------------------------------------|
------------------------------------------------------------|
------------------------------------------------------------|
----0--0----0--0--0--0--0--0--0--0--0--0--0--0--3--0--3--6--|
----0--0----0--0--0--0--0--0--0--0--0--0--0--0--3--0--3--6--|


                                PM PM PM    PM PM PM  
  E  E  E  E  E  E  E  E     E  E  E  E  E  E  E  E   
--------------------------|--------------------------|
--------------------------|--------------------------|
--------------------------|--------------------------|
--------------------------|--3-----------5-----------|
--0--3--2--0--2--1--0--1--|--1--2--1--2--3--3--1--3--|
--0--3--2--0--2--1--0--1--|-----2--1--2-----3--1--3--|


  Tempo 180                                                  
  E         E  E  E  E  E  E  E     E  E  E  E  E  E  E  E   
---------------------------------|--------------------------|
---------------------------------|--------------------------|
---------------------------------|--------------------------|
---------------------------------|--------------------------|
---------------------------------|--------------------------|
--6---------0--0--6--0--0--6--0--|--7--0--0--7--0--0--3--6--|


  E  E  E  E  S S E  E  S S    E  E  S S E  E  S S E  E   
----------------------------|----------------------------|
----------------------------|----------------------------|
----------------------------|----------------------------|
----------------------------|----------------------------|
----------------------------|----------------------------|
--7--6--0--0--0-0-0--0--0-0-|--0--0--0-0-0--0--0-0-0--0--|


  E  E  E  E  E  E  E  E     E  E  E  E  E  E  E  E   
--------------------------|--------------------------|
--------------------------|--------------------------|
--------------------------|--------------------------|
--------------------------|--------------------------|
--------------------------|--------------------0--3--|
--6--0--0--6--0--0--6--0--|--7--0--0--7--0--0--------|


                                PM PM PM PM PM PM PM  
  E  E  E  E  E  E  E  E     E  E  E  E  E  E  E  E   
--------------------------|--------------------------|
--------------------------|--------------------------|
--------------------------|--------------------------|
--------------------------|--------------------------|
--2--------2--------2-----|--1-----------------------|
-----3--3-----3--3-----3--|-----3--2--1--0--1--2--3--|


  E  E  E  E  E  E  E  E     E  E  E  E  E  E  E  E   
--------------------------|--------------------------|
--------------------------|--------------------------|
--------------------------|--------------------------|
--------------------------|--------------------------|
--------------------------|--------------------------|
--6--0--0--6--0--0--6--0--|--7--0--0--7--0--0--3--6--|


  E  E  E  E  S S E  E  S S    E  E  S S E  E  S S E  E   
----------------------------|----------------------------|
----------------------------|----------------------------|
----------------------------|----------------------------|
----------------------------|----------------------------|
----------------------------|----------------------------|
--7--6--0--0--0-0-0--0--0-0-|--0--0--0-0-0--0--0-0-0--0--|


  E  E  E  E  E  E  E  E     E  E  E  E  E  E  E  E   
--------------------------|--------------------------|
--------------------------|--------------------------|
--------------------------|--------------------------|
--------------------------|--------------------------|
--------------------------|--------------------0--3--|
--6--0--0--6--0--0--6--0--|--7--0--0--7--0--0--------|


                                PM PM PM PM PM PM PM  
  E  E  E  E  E  E  E  E     E  E  E  E  E  E  E  E   
--------------------------|--------------------------|
--------------------------|--------------------------|
--------------------------|--------------------------|
--------------------------|--------------------------|
--2--------2--------2-----|--1-----------------------|
-----3--3-----3--3-----3--|-----3--2--1--0--1--2--3--|


  E  E  E  E  E  E  E  E     E  E  E  E  E  E  E  E   
--------------------------|--------------------------|
--------------------------|--------------------------|
--------------------------|--------------------------|
--------------------------|--------------------------|
--6--0--0--6--0--0--6--0--|--7--0--0--7--0--0--3--6--|
--6--0--0--6--0--0--6--0--|--7--0--0--7--0--0--3--6--|


  E  E  E  E  S S E  E  S S    E  E  S S E  E  S S E  E   
----------------------------|----------------------------|
----------------------------|----------------------------|
----------------------------|----------------------------|
----------------------------|----------------------------|
--7--6--0--0--0-0-0--0--0-0-|--0--0--0-0-0--0--0-0-0--0--|
--7--6--0--0--0-0-0--0--0-0-|--0--0--0-0-0--0--0-0-0--0--|


  E  E  E  E  E  E  E  E     E  E  E  E  E  E  E  E   
--------------------------|--------------------------|
--------------------------|--------------------------|
--------------------------|--------------------------|
--------------------------|--------------------2--5--|
--6--0--0--6--0--0--6--0--|--7--0--0--7--0--0--0--3--|
--6--0--0--6--0--0--6--0--|--7--0--0--7--0--0--------|


                                PM PM PM PM PM PM PM  
  E  E  E  E  E  E  E  E     E  E  E  E  E  E  E  E   
--------------------------|--------------------------|
--------------------------|--------------------------|
--------------------------|--------------------------|
--4--------4--------4-----|--3-----------------------|
--2--3--3--2--3--3--2--3--|--1--3--2--1--0--1--2--3--|
-----3--3-----3--3-----3--|-----3--2--1--0--1--2--3--|


  S S S S E  E  E  E  S S S S    E  E  E  E  S S S S S S S S  
------------------------------|------------------------------|
------------------------------|------------------------------|
------------------------------|------------------------------|
------------------------------|------------------------------|
------------------------------|------------------------------|
--2-2-2-2-2--2--2--2--2-2-2-2-|--2--2--2--2--2-2-2-2-2-2-2-2-|


  S S S S E  E  E  E  S S S S    E  E  E  E  S S S S S S S S  
------------------------------|------------------------------|
------------------------------|------------------------------|
------------------------------|------------------------------|
------------------------------|------------------------------|
------------------------------|------------------------------|
--2-2-2-2-2--2--2--2--2-2-2-2-|--2--2--2--2--2-2-2-2-2-2-2-2-|


  S S S S E  E  E  E  S S S S    E  E  E  E  S S S S S S S S  
------------------------------|------------------------------|
------------------------------|------------------------------|
------------------------------|------------------------------|
------------------------------|------------------------------|
------------------------------|------------------------------|
--2-2-2-2-2--2--2--2--2-2-2-2-|--2--2--2--2--2-2-2-2-2-2-2-2-|


  S S S S E  E  E  E  S S S S    S S S S E  E  E  Q.      
------------------------------|--------------------------|
------------------------------|--------------------------|
------------------------------|--------------------------|
------------------------------|--------------------------|
------------------------------|-------------------3------|
--2-2-2-2-2--2--2--2--2-2-2-2-|--2-2-2-2-2--2--2--3------|


  S S E  E  E  S S E  S S E     E  E  E  E  S S E  E  E   
-----------------------------|---------------------------|
-----------------------------|---------------------------|
-----------------------------|---------------------------|
-----------------------------|---------------------------|
-----------------------------|---------------------------|
--3-6-3--2--2--2-2-2--3-6-3--|--2--2--2--2--2-2-2--2--2--|


  S S E  E  E  S S E  S S E     E  E  E  E  E  Q.      
-----------------------------|------------------------|
-----------------------------|------------------------|
-----------------------------|------------------------|
-----------------------------|------------------------|
-----------------------------|--------------2--3------|
--3-6-3--2--2--2-2-2--3-6-3--|--2--2--2--2--2--3------|


  S S E  E  E  S S E  S S E     E  E  E  E  S S E  E  E   
-----------------------------|---------------------------|
-----------------------------|---------------------------|
-----------------------------|---------------------------|
-----------------------------|---------------------------|
-----------------------------|---------------------------|
--3-6-3--2--2--2-2-2--3-6-3--|--2--2--2--2--2-2-2--2--2--|


  S S E  E  E  S S E  S S E     E  E  E  E  S S Q.      
-----------------------------|-------------------------|
-----------------------------|-------------------------|
-----------------------------|-------------------------|
-----------------------------|-------------------------|
-----------------------------|------------------3------|
--3-6-3--2--2--2-2-2--3-6-3--|--2--2--2--2--2-2-3------|


  E  E  E  E  E  E  E  E     E  E  E  E  E  E  E  E   
--------------------------|--------------------------|
--------------------------|--------------------------|
--------------------------|--------------------------|
--------------------------|--------------------------|
--------------------------|--------------------------|
--------------------------|--------------------3--6--|


  E  E  E  E  S S E  E  S S    E  E  S S E  E  S S E  E   
----------------------------|----------------------------|
----------------------------|----------------------------|
----------------------------|----------------------------|
----------------------------|----------------------------|
----------------------------|----------------------------|
--7--6--0--0--0-0-0--0--0-0-|--0--0--0-0-0--0--0-0-0--0--|


  E  E  E  E  E  E  E  E     E  E  E  E  E  E  E  E   
--------------------------|--------------------------|
--------------------------|--------------------------|
--------------------------|--------------------------|
--------------------------|--------------------------|
--------------------------|--------------------0--3--|
--6--0--0--6--0--0--6--0--|--7--0--0--7--0--0--------|


                                PM PM PM PM PM PM PM  
  E  E  E  E  E  E  E  E     E  E  E  E  E  E  E  E   
--------------------------|--------------------------|
--------------------------|--------------------------|
--------------------------|--------------------------|
--------------------------|--------------------------|
--2--------2--------2-----|--1-----------------------|
-----3--3-----3--3-----3--|-----3--2--1--0--1--2--3--|


  E  E  E  E  E  E  E  E     E  E  E  E  E  E  E  E   
--------------------------|--------------------------|
--------------------------|--------------------------|
--------------------------|--------------------------|
--------------------------|--------------------------|
--------------------------|--------------------------|
--6--0--0--6--0--0--6--0--|--7--0--0--7--0--0--3--6--|


  E  E  E  E  S S E  E  S S    E  E  S S E  E  S S E  E   
----------------------------|----------------------------|
----------------------------|----------------------------|
----------------------------|----------------------------|
----------------------------|----------------------------|
----------------------------|----------------------------|
--7--6--0--0--0-0-0--0--0-0-|--0--0--0-0-0--0--0-0-0--0--|


  E  E  E  E  E  E  E  E     E  E  E  E  E  E  E  E   
--------------------------|--------------------------|
--------------------------|--------------------------|
--------------------------|--------------------------|
--------------------------|--------------------------|
--------------------------|--------------------0--3--|
--6--0--0--6--0--0--6--0--|--7--0--0--7--0--0--------|


                                PM PM PM PM PM PM PM  
  E  E  E  E  E  E  E  E     E  E  E  E  E  E  E  E   
--------------------------|--------------------------|
--------------------------|--------------------------|
--------------------------|--------------------------|
--------------------------|--------------------------|
--2--------2--------2-----|--1-----------------------|
-----3--3-----3--3-----3--|-----3--2--1--0--1--2--3--|


  S S S S E  E  E  E  S S S S    E  E  E  E  S S S S S S S S  
------------------------------|------------------------------|
------------------------------|------------------------------|
------------------------------|------------------------------|
------------------------------|------------------------------|
------------------------------|------------------------------|
--2-2-2-2-2--2--2--2--2-2-2-2-|--2--2--2--2--2-2-2-2-2-2-2-2-|


  S S S S E  E  E  E  S S S S    E  E  E  E  S S S S S S S S  
------------------------------|------------------------------|
------------------------------|------------------------------|
------------------------------|------------------------------|
------------------------------|------------------------------|
------------------------------|------------------------------|
--2-2-2-2-2--2--2--2--2-2-2-2-|--2--2--2--2--2-2-2-2-2-2-2-2-|


  S S S S E  E  E  E  S S S S    E  E  E  E  S S S S S S S S  
------------------------------|------------------------------|
------------------------------|------------------------------|
------------------------------|------------------------------|
------------------------------|------------------------------|
------------------------------|------------------------------|
--2-2-2-2-2--2--2--2--2-2-2-2-|--2--2--2--2--2-2-2-2-2-2-2-2-|


  S S S S E  E  E  E  S S S S    E  E  E  E  E  Q.      
------------------------------|------------------------|
------------------------------|------------------------|
------------------------------|------------------------|
------------------------------|------------------------|
------------------------------|--------------2--3------|
--2-2-2-2-2--2--2--2--2-2-2-2-|--2--2--2--2--2--3------|


  S S E  E  E  S S E  S S E     E  E  E  E  S S E  E  E   
-----------------------------|---------------------------|
-----------------------------|---------------------------|
-----------------------------|---------------------------|
-----------------------------|---------------------------|
-----------------------------|---------------------------|
--3-6-3--2--2--2-2-2--3-6-3--|--2--2--2--2--2-2-2--2--2--|


  S S E  E  E  S S E  S S E     E  E  E  E  S S Q.      
-----------------------------|-------------------------|
-----------------------------|-------------------------|
-----------------------------|-------------------------|
-----------------------------|-------------------------|
-----------------------------|------------------3------|
--3-6-3--2--2--2-2-2--3-6-3--|--2--2--2--2--2-2-3------|


  S S E  E  E  S S E  S S E     E  E  E  E  S S E  E  E   
-----------------------------|---------------------------|
-----------------------------|---------------------------|
-----------------------------|---------------------------|
-----------------------------|---------------------------|
-----------------------------|---------------------------|
--3-6-3--2--2--2-2-2--3-6-3--|--2--2--2--2--2-2-2--2--2--|


                                                PM                           
  S S E  E  E  S S E  S S E     E  E  E  E  S S E  Q       W                 
-----------------------------|--------------------------|-------------------|
-----------------------------|--------------------------|-------------------|
-----------------------------|--------------------------|-------------------|
-----------------------------|--------------------------|-------------------|
-----------------------------|------------------0--0----|--L----------------|
--3-6-3--2--2--2-2-2--3-6-3--|--2--2--2--2--2-2-0--0----|--L----------------|


                            Tempo 131                            
   \6        \6                                                  
   H         E  E  E  E     E         S S S S E  E  S S S S S S  
-------------------------|--------------------------------------|
-------------------------|--------------------------------------|
-------------------------|--------------------------------------|
-------------------------|--------------------------------------|
--(0)--------L--L--L--L--|--0---------0-0-0-0-1--0--0-0-0-0-0-0-|
--(0)--------L--L--L--L--|--0---------0-0-0-0-1--0--0-0-0-0-0-0-|


  S S E  S S E  E  S S S S E     E  S S S S E  E  S S S S S S  
------------------------------|-------------------------------|
------------------------------|-------------------------------|
------------------------------|-------------------------------|
------------------------------|-------------------------------|
--L-0-0--0-0-1--0--0-0-0-0----|--0--0-0-0-0-1--0--0-0-0-0-0-0-|
--L-0-0--0-0-1--0--0-0-0-0----|--0--0-0-0-0-1--0--0-0-0-0-0-0-|


  S S E  S S E  E  S S S S E     E  S S S S E  E  S S S S S S  
------------------------------|-------------------------------|
------------------------------|-------------------------------|
------------------------------|-------------------------------|
------------------------------|-------------------------------|
--L-0-0--0-0-1--0--0-0-0-0----|--0--0-0-0-0-1--0--0-0-0-0-0-0-|
--L-0-0--0-0-1--0--0-0-0-0----|--0--0-0-0-0-1--0--0-0-0-0-0-0-|


  S S E  S S E  E  S S S S E     E  S S S S E  E  S S S S S S  
------------------------------|-------------------------------|
------------------------------|-------------------------------|
------------------------------|-------------------------------|
------------------------------|-------------------------------|
--L-0-0--0-0-1--0--0-0-0-0----|--0--0-0-0-0-1--0--0-0-0-0-0-0-|
--L-0-0--0-0-1--0--0-0-0-0----|--0--0-0-0-0-1--0--0-0-0-0-0-0-|


  S S E  S S E  E  S S S S E     E  S S S S E  E  S S S S S S  
------------------------------|-------------------------------|
------------------------------|-------------------------------|
------------------------------|-------------------------------|
------------------------------|-------------------------------|
--L-0-0--0-0-1--0--0-0-0-0----|--0--0-0-0-0-1--0--0-0-0-0-0-0-|
--L-0-0--0-0-1--0--0-0-0-0----|--0--0-0-0-0-1--0--0-0-0-0-0-0-|


  S S E  S S E  E  S S S S E     E  S S S S E  E  S S S S S S  
------------------------------|-------------------------------|
------------------------------|-------------------------------|
------------------------------|-------------------------------|
------------------------------|-------------------------------|
--L-0-0--0-0-1--0--0-0-0-0----|--0--0-0-0-0-1--0--0-0-0-0-0-0-|
--L-0-0--0-0-1--0--0-0-0-0----|--0--0-0-0-0-1--0--0-0-0-0-0-0-|


  S S E  S S E  E  S S S S E     E  S S S S E  E  S S S S S S  
------------------------------|-------------------------------|
------------------------------|-------------------------------|
------------------------------|-------------------------------|
------------------------------|-------------------------------|
--L-0-0--0-0-1--0--0-0-0-0----|--0--0-0-0-0-1--0--0-0-0-0-0-0-|
--L-0-0--0-0-1--0--0-0-0-0----|--0--0-0-0-0-1--0--0-0-0-0-0-0-|


  S S E  S S E  E  S S S S E     E  S S S S E  E  S S S S S S  
------------------------------|-------------------------------|
------------------------------|-------------------------------|
------------------------------|-------------------------------|
------------------------------|-------------------------------|
--L-0-0--0-0-1--0--0-0-0-0----|--0--0-0-0-0-1--0--0-0-0-0-0-0-|
--L-0-0--0-0-1--0--0-0-0-0----|--0--0-0-0-0-1--0--0-0-0-0-0-0-|


  S S E  S S E  E  S S S S E     E  S S S S E  E  S S S S S S  
------------------------------|-------------------------------|
------------------------------|-------------------------------|
------------------------------|-------------------------------|
------------------------------|-------------------------------|
--L-0-0--0-0-1--0--0-0-0-0----|--0--0-0-0-0-1--0--0-0-0-0-0-0-|
--L-0-0--0-0-1--0--0-0-0-0----|--0--0-0-0-0-1--0--0-0-0-0-0-0-|


  S S E  S S E  E  S S S S E     E  S S S S E  E  S S S S S S  
------------------------------|-------------------------------|
------------------------------|-------------------------------|
------------------------------|-------------------------------|
------------------------------|-------------------------------|
--L-0-0--0-0-1--0--0-0-0-0----|--0--0-0-0-0-1--0--0-0-0-0-0-0-|
--L-0-0--0-0-1--0--0-0-0-0----|--0--0-0-0-0-1--0--0-0-0-0-0-0-|


  S S E  S S E  E  S S S S E     E  S S S S E  E  S S S S S S  
------------------------------|-------------------------------|
------------------------------|-------------------------------|
------------------------------|-------------------------------|
------------------------------|-------------------------------|
--L-0-0--0-0-1--0--0-0-0-0----|--0--0-0-0-0-1--0--0-0-0-0-0-0-|
--L-0-0--0-0-1--0--0-0-0-0----|--0--0-0-0-0-1--0--0-0-0-0-0-0-|


  S S E  S S E  E  S S S S E     E  S S S S E  E  S S S S S S  
------------------------------|-------------------------------|
------------------------------|-------------------------------|
------------------------------|-------------------------------|
------------------------------|-------------------------------|
--L-0-0--0-0-1--0--0-0-0-0----|--0--0-0-0-0-1--0--0-0-0-0-0-0-|
--L-0-0--0-0-1--0--0-0-0-0----|--0--0-0-0-0-1--0--0-0-0-0-0-0-|


                                                   PM    
  S S E  S S E  E  S S S S S S    S S S S H        Q     
-------------------------------|------------------------|
-------------------------------|------------------------|
-------------------------------|------------------------|
-------------------------------|------------------------|
--L-0-0--0-0-1--0--0-0-0-0-0-0-|----0-0---1--------0----|
--L-0-0--0-0-1--0--0-0-0-0-0-0-|----0-0---1--------0----|


  PM         PM                                           
  Q    E  E  E  E  E  E     E  S S S S E  E  S S S S S S  
-------------------------|-------------------------------|
-------------------------|-------------------------------|
-------------------------|-------------------------------|
-------7--6-----6--5-----|-------------------------------|
--0----8--7--0--7--6-----|--0--0-0-0-0-1--0--0-0-0-0-0-0-|
--0----------0-----------|--0--0-0-0-0-1--0--0-0-0-0-0-0-|


                                                   PM    
  S S E  S S E  E  S S S S S S    S S S S H        Q     
-------------------------------|------------------------|
-------------------------------|------------------------|
-------------------------------|------------------------|
-------------------------------|------------------------|
--L-0-0--0-0-1--0--0-0-0-0-0-0-|----0-0---1--------0----|
--L-0-0--0-0-1--0--0-0-0-0-0-0-|----0-0---1--------0----|


  PM         PM                                           
  Q    E  E  E  E  E  E     E  S S S S E  E  S S S S S S  
-------------------------|-------------------------------|
-------------------------|-------------------------------|
-------------------------|-------------------------------|
-------7--6-----6--5-----|-------------------------------|
--0----8--7--0--7--6-----|--0--0-0-0-0-1--0--0-0-0-0-0-0-|
--0----------0-----------|--0--0-0-0-0-1--0--0-0-0-0-0-0-|


                                                   PM    
  S S E  S S E  E  S S S S S S    S S S S H        Q     
-------------------------------|------------------------|
-------------------------------|------------------------|
-------------------------------|------------------------|
-------------------------------|------------------------|
--L-0-0--0-0-1--0--0-0-0-0-0-0-|----0-0---1--------0----|
--L-0-0--0-0-1--0--0-0-0-0-0-0-|----0-0---1--------0----|


  PM         PM                                           
  Q    E  E  E  E  E  E     E  S S S S E  E  S S S S S S  
-------------------------|-------------------------------|
-------------------------|-------------------------------|
-------------------------|-------------------------------|
-------7--6-----6--5-----|-------------------------------|
--0----8--7--0--7--6-----|--0--0-0-0-0-1--0--0-0-0-0-0-0-|
--0----------0-----------|--0--0-0-0-0-1--0--0-0-0-0-0-0-|


                                                   PM    
  S S E  S S E  E  S S S S S S    S S S S H        Q     
-------------------------------|------------------------|
-------------------------------|------------------------|
-------------------------------|------------------------|
-------------------------------|------------------------|
--L-0-0--0-0-1--0--0-0-0-0-0-0-|----0-0---1--------0----|
--L-0-0--0-0-1--0--0-0-0-0-0-0-|----0-0---1--------0----|


  PM         PM                                           
  Q    E  E  E  E  E  E     E  S S S S E  E  S S S S S S  
-------------------------|-------------------------------|
-------------------------|-------------------------------|
-------------------------|-------------------------------|
-------7--6-----6--5-----|-------------------------------|
--0----8--7--0--7--6-----|--0--0-0-0-0-1--0--0-0-0-0-0-0-|
--0----------0-----------|--0--0-0-0-0-1--0--0-0-0-0-0-0-|


  S S E  S S E  E  S S S S E     E  S S S S E  E  S S S S S S  
------------------------------|-------------------------------|
------------------------------|-------------------------------|
------------------------------|-------------------------------|
------------------------------|-------------------------------|
--L-0-0--0-0-1--0--0-0-0-0----|--0--0-0-0-0-1--0--0-0-0-0-0-0-|
--L-0-0--0-0-1--0--0-0-0-0----|--0--0-0-0-0-1--0--0-0-0-0-0-0-|


  S S E  S S E  E  S S S S E     E  S S S S E  E  S S S S S S  
------------------------------|-------------------------------|
------------------------------|-------------------------------|
------------------------------|-------------------------------|
------------------------------|-------------------------------|
--L-0-0--0-0-1--0--0-0-0-0----|--0--0-0-0-0-1--0--0-0-0-0-0-0-|
--L-0-0--0-0-1--0--0-0-0-0----|--0--0-0-0-0-1--0--0-0-0-0-0-0-|


  S S E  S S E  E  S S S S E     E  S S S S E  E  S S S S S S  
------------------------------|-------------------------------|
------------------------------|-------------------------------|
------------------------------|-------------------------------|
------------------------------|-------------------------------|
--L-0-0--0-0-1--0--0-0-0-0----|--0--0-0-0-0-1--0--0-0-0-0-0-0-|
--L-0-0--0-0-1--0--0-0-0-0----|--0--0-0-0-0-1--0--0-0-0-0-0-0-|


  S S E  S S E  E  S S S S E     E  S S S S E  E  S S S S S S  
------------------------------|-------------------------------|
------------------------------|-------------------------------|
------------------------------|-------------------------------|
------------------------------|-------------------------------|
--L-0-0--0-0-1--0--0-0-0-0----|--0--0-0-0-0-1--0--0-0-0-0-0-0-|
--L-0-0--0-0-1--0--0-0-0-0----|--0--0-0-0-0-1--0--0-0-0-0-0-0-|


  S S E  S S E  E  S S S S E     E  S S S S E  E  S S S S S S  
------------------------------|-------------------------------|
------------------------------|-------------------------------|
------------------------------|-------------------------------|
------------------------------|-------------------------------|
--L-0-0--0-0-1--0--0-0-0-0----|--0--0-0-0-0-1--0--0-0-0-0-0-0-|
--L-0-0--0-0-1--0--0-0-0-0----|--0--0-0-0-0-1--0--0-0-0-0-0-0-|


  S S E  S S E  E  S S S S E     E  S S S S E  E  S S S S S S  
------------------------------|-------------------------------|
------------------------------|-------------------------------|
------------------------------|-------------------------------|
------------------------------|-------------------------------|
--L-0-0--0-0-1--0--0-0-0-0----|--0--0-0-0-0-1--0--0-0-0-0-0-0-|
--L-0-0--0-0-1--0--0-0-0-0----|--0--0-0-0-0-1--0--0-0-0-0-0-0-|


  S S E  S S E  E  S S S S E     E  S S S S E  E  S S S S S S  
------------------------------|-------------------------------|
------------------------------|-------------------------------|
------------------------------|-------------------------------|
------------------------------|-------------------------------|
--L-0-0--0-0-1--0--0-0-0-0----|--0--0-0-0-0-1--0--0-0-0-0-0-0-|
--L-0-0--0-0-1--0--0-0-0-0----|--0--0-0-0-0-1--0--0-0-0-0-0-0-|


  S S E  S S E  E  S S S S E     E  S S S S E  E  S S S S S S  
------------------------------|-------------------------------|
------------------------------|-------------------------------|
------------------------------|-------------------------------|
------------------------------|-------------------------------|
--L-0-0--0-0-1--0--0-0-0-0----|--0--0-0-0-0-1--0--0-0-0-0-0-0-|
--L-0-0--0-0-1--0--0-0-0-0----|--0--0-0-0-0-1--0--0-0-0-0-0-0-|


  S S E  S S E  E  S S S S E     E  S S S S E  E  S S S S S S  
------------------------------|-------------------------------|
------------------------------|-------------------------------|
------------------------------|-------------------------------|
------------------------------|-------------------------------|
--L-0-0--0-0-1--0--0-0-0-0----|--0--0-0-0-0-1--0--0-0-0-0-0-0-|
--L-0-0--0-0-1--0--0-0-0-0----|--0--0-0-0-0-1--0--0-0-0-0-0-0-|


  S S E  S S E  E  S S S S E     E  S S S S E  E  S S S S S S  
------------------------------|-------------------------------|
------------------------------|-------------------------------|
------------------------------|-------------------------------|
------------------------------|-------------------------------|
--L-0-0--0-0-1--0--0-0-0-0----|--0--0-0-0-0-1--0--0-0-0-0-0-0-|
--L-0-0--0-0-1--0--0-0-0-0----|--0--0-0-0-0-1--0--0-0-0-0-0-0-|


  S S E  S S E  E  S S S S E     E  S S S S E  E  S S S S S S  
------------------------------|-------------------------------|
------------------------------|-------------------------------|
------------------------------|-------------------------------|
------------------------------|-------------------------------|
--L-0-0--0-0-1--0--0-0-0-0----|--0--0-0-0-0-1--0--0-0-0-0-0-0-|
--L-0-0--0-0-1--0--0-0-0-0----|--0--0-0-0-0-1--0--0-0-0-0-0-0-|


  S S E  S S E  E  S S S S E          
------------------------------|-----||
------------------------------|-----||
------------------------------|-----||
------------------------------|-----||
--L-0-0--0-0-1--0--0-0-0-0----|-----||
--L-0-0--0-0-1--0--0-0-0-0----|-----||




Duration Legend
---------------
W - whole
H - half
Q - quarter
E - 8th
S - 16th
T - 32nd
X - 64th
. - note dotted
|-n-|  - n-tuplets


Tablature Legend
----------------
L - tied note
x - dead note
g - grace note
(n) - ghost note
> - accentuded note
NH - natural harmonic
AH - artificial harmonic
TH - tapped harmonic
SH - semi harmonic
PH - pitch harmonic
h - hammer on
p - pull off
b - bend
br - bendRelease
pb - preBend
pbr - preBendRelease
brb - bendReleaseBend
\n/ - tremolo bar dip
\n - tremolo bar dive
-/n - tremolo bar Release up
/n\ - tremolo bar inverted dip
/n - tremolo bar return
-\n - tremolo bar Release down
S - shift slide
s - legato slide
/ -  slide into from below or out of upwards
\ -  slide into from above or out of downwards
~ - vibrato
W - wide vibrato
tr - trill
TP - tremolo picking
T - tapping
S - slap
P - pop
< - fade in
^ - brush up
v - brush down
Добавлено: 07.07.2012
Другие материалы по этой песне:

Страница создана 21.02.2012
http://primanota.ru/lamb-of-god/remorse-is-for-the-dead-chords.htm
Привет, Гость.
Предлагаем пройти революционный курс по гитаре.
Подарок от PrimaNota.Ru, забирай!