PrimaNota.ru - самый крупный в мире бесплатный архив песенных текстов, аккордов, табулатур и нот


Lamb Of God - More Time To Kill - текст песни, таба, бас-таба, видео

Регистрация Запомнить меня
Войти через:  Facebook Google Twitter Vk Yandex Mail.ru

Lamb Of God - More Time To Kill - текст песни, таба, бас-таба, видео

Печатать
Просмотров: 272
Уроки эстрадного вокала в Санкт-Петербурге
hey its my first tab but i just figured this part out so here it is
TUNING IS (D A D G B E)
-------------------------------------------------------------------|
-------------------------------------------------------------------|
------1010------1010----1010--------8-8-------8-8-----8-8----------|
-------8-8-------8-8-----8-8--------6-6-------6-6-----6-6----------|
-0-0-0-----0-0-0-----0-0-----0-0-0------0-0-0-----0-0--------------|
-0-0-0-----0-0-0-----0-0-----0-0-0------0-0-0-----0-0--------------|

-------------------------------------------------------------------|
-------------------------------------------------------------------|
------1010------1010----1010-------8-8-------8-8-------------------|
-------8-8-------8-8-----8-8-------6-6-------6-6-------------------|
-0-0-0-----0-0-0-----0-0-----0-0-0-----0-0-0-----------------------|
-0-0-0-----0-0-0-----0-0-----0-0-0-----0-0-0-----------------------|

-------------------------------------------------------------------|
-------------------------------------------------------------------|
-------------------------------------------------------------------|
-------------------------------------------------------------------|
-------------------------------------------------------------------|
0-0-1-0-3/5\3-0----------------------------------------------------|
that's it for now i'll add more as i listen to LAMB OF GOD!
Добавлено: 30.07.2012
Другие материалы по этой песне:

Страница создана 17.04.2012
http://primanota.ru/lamb-of-god/more-time-to-kill-chords.htm
Привет, Гость.
Предлагаем пройти революционный курс по гитаре.
Подарок от PrimaNota.Ru, забирай!