PrimaNota.ru - самый крупный в мире бесплатный архив песенных текстов, аккордов, табулатур и нот


Lamb Of God - King Me - текст песни, таба, видео

Регистрация Запомнить меня
Войти через:  Facebook Google Twitter Vk Yandex Mail.ru

Lamb Of God - King Me - текст песни, таба, видео

Печатать
Просмотров: 312
Guitar 1 (left)
Drop C# (half step lower than written)

Guitar 2 (right)
Double Drop C# (half step lower than written)

Intro/Verse
Gtr 1
E|---------------------------------------------------------------------|
B|---------------------------------------------------------------------|
G|-------------------------------------------------------------10--(10)|
D|-----11----(11b11.5)----6h7p6---6------------5----------/8-----------|
A|---8--------------------------8---8-7-(7)--7-------------------------|
D|-0---------------------(0)-------------7h8---------5----(5)----------|

Gtr 2
D|------0--------------------------------------------------------------|
B|-rake--5----------------------------------------------------(5)------|
G|--------6-------------------------------------------------(7)-(7)----|
D|---------7----------------------------------------------(7)----------|
A|----------0-------------------------------------------(0)------------|
D|---------------------------------------------------------------------|
So the Gtr 2 (double drop c#) part is playing one of these chords, I'm not sure which.
They all work, so its just a matter of preference:
D|-2-|  D|-0-|  D|-0-|
B|-3-|  B|-5-|  B|-5-|
G|-2-|  G|-6-|  G|-7-|
D|-0-|  D|-7-|  D|-7-|
A|-0-|  A|-0-|  A|-0-|
D|---|  D|---|  D|---|

Chorus
E|---------------------------------------------------------------------|
B|-3-------------------------------------------------------------------|
G|-2---------------------10------------7-------------------------------|
D|-0---------------------10------------8-------------------------------|
A|-0---------------------8-------------5-------------------------------|
D|-0---------------------8-------------5-------------------------------|
I strum these chords as eighth notes, the first chord getting 2 measures, the others
getting one each. I'm not exactly sure what they're strumming pattern is, but I think they
strum eighth notes. Also, the first time this chorus comes around, there is a guitar 
playing this: (picked as eighth notes)

E|---------------------------------------------------------------------|
B|---------------------------------------------------------------------|
G|---------------------------------------------------------------------|
D|-7------(7b8r7)--------10---10h12p10-8---8h10p8----------------------|
A|---------------------------------------------------------------------|
D|---------------------------------------------------------------------|

Bridge
E|---------------------------------------------------------------------|
B|---------------------------------------------------------------------|
G|---------------------------------------------------------------------|
D|-.......---.---...........---.---.---.---.......---.......---.....---|
A|-0-0-0-0---0---0-0-0-0-0-0---0---0---0---0-0-0-0---0-0-0-0---0-0-0-(6|
D|-0-0-0-0---0---0-0-0-0-0-0---0---0---0---0-0-0-0---0-0-0-0---0-0-0-(6|

E|---------------------------------------------------------------------|
B|---------------------------------------------------------------------|
G|----------(pitch-C)--------------------------------------------------|
D|------------PH----.......---.---...........---.---.---.---.......---.|
A|-6\----0----6-----0-0-0-0---0---0-0-0-0-0-0---0---0---0---0-0-0-0---0|
D|-6\----0----------0-0-0-0---0---0-0-0-0-0-0---0---0---0---0-0-0-0---0|

E|---------------------------------------------------------------------|
B|---------------------------------------------------------------------|
G|---------------------------------------------------------------------|
D|-.....---...-4-.....-6-.-4-5-----------------------------------------|
A|-0-0-0---0-0---6-5-4---5---------------------------------------------|
D|-0-0-0---0-0---------------------------------------------------------|

Prechorus (1st time)
E|---------------------------------------------------------------------|
B|---------------------------------------------------------------------|
G|---------------------------------------------------------------------|
D|------------------------------------------------------------5h6p5----|
A|----------------------------------------------------4/5h7h8-------8--|
D|-0-3-2-2-2-2-3-6-2-2-2-2-2-3-2-0-3-2-0-6~---0h3h6h7------------------|

E|---------------------------------------------------------------------|
B|---------------------------------------------------------------------|
G|---------------------------------------------------------------------|
D|----------------------------------------------------------.----------|
A|------------------------------------------------.........-6----------|
D|-0-3-2-2-2-2-3-6-2-2-2-2-2-3-2-0-3-2-0-6~---6p0-6-5-4-0-3-6----------|

Prechorus (2nd time)
E|---------------------------------------------------------------------|
B|---------------------------------------------------------------------|
G|---------------------------------------------------------------------|
D|------------------------------------------------------------5h6p5----|
A|----------------------------------------------------4/5h7h8-------8--|
D|-0-3-2-2-2-2-3-6-2-2-2-2-2-3-2-0-3-2-0-6~---0h3h6h7------------------|

E|---------------------------------------------------------------------|
B|---------------------------------------------------------------------|
G|---------------------------------------------------------------------|
D|---------------------------------------------------------------------|
A|------------------------------------------------...............------|
D|-0-3-2-2-2-2-3-6-2-2-2-2-2-3-2-0-3-2-0-6~---6p0-6-5-4-0-3-6-6-6------|

E|---------------------------------------------------------------------|
B|---------------------------------------------------------------------|
G|---------------------------------------------------------------------|
D|------------------------------------------------------------5h6p5----|
A|----------------------------------------------------4/5h7h8-------8--|
D|-0-3-2-2-2-2-3-6-2-2-2-2-2-3-2-0-3-2-0-6~---0h3h6h7------------------|



E|---------------------------------------------------------------------|
B|---------------------------------------------------------------------|
G|---------------------------------------------------------------------|
D|---------------------------------...---------------------------------|
A|---------------------------------6-6---------------------------------|
D|-0-3-2-2-2-2-3-6-2-2-2-2-2-3-2-0-6-6---------------------------------|

Interlude
E|---------------------------------------------------------------------|
B|---------------------------------------------------------------------|
G|---------------------------------------------------------------------|
D|---------------------------------------------------------------------|
A|-3--5--6--5--6--10--9--13--10----------------------------------------|
D|-3--5--6--5--6--10--9--13--10--17~-----------------------------------|

Breakdown (gtr 1)
E|---------------------------------------------------------------------|
B|-------16----16--------16----16----16--------------------------------|
G|-19-------19----19--------19----19----17-----------------------------|
D|---------------------------------------------------------------------|
A|---------------------------------------------------------------------|
D|---------------------------------------------------------------------|

Breakdown (gtr 2)
E|---------------------------------------------------------------------|
B|---------------------------------------------------------------------|
G|---------------------------------------------------------------------|
D|---------------------------------------------------------------------|
A|-....---..-6-..---..------6------------1---3---....---..-6-..---..---|
D|-0000-0-00---00-0-00-0-00---00-0-1-4-0---4---4-0000-0-00---00-0-00-0-|

E|---------------------------------------------------------------------|
B|---------------------------------------------------------------------|
G|---------------------------------------------------------------------|
D|--------------------------------------------------(11b12)------------|
A|-------------------------------------------0--0----------------------|
D|-1-4-0-3-3-3-3-3-4-3-0-6-6-6-6-(last-time)-0--0----------------------|

2nd Bridge
E|---------------------------------------------------------------------|
B|---------------------------------------------------------------------|
G|---------------------------------------------------------------------|
D|---------------------------------------------------------------------|
A|-..---(12x)-..-------------------------------------------------------|
D|-00-0-------00-0-1-4-0-3-3-3-3-3-4-3-0-3-4-3-0-----------------------|

End
E|-(starts-as-the-breakdown-riff-but-ends-like-this)-------------------|
B|---------------------------------------------------------------------|
G|---------------------------------------------------------------------|
D|---------------------------------------------------------------------|
A|-----------------6---------------------------------------------------|
D|-0-1-4-0-3-3-3-3-6---------------------------------------------------|

Notation:

... - palm mutes
h   - hammer on
p   - pull off
~   - vibrato
/   - slide up
\   - slide down
b   - bend
(0) - ghost note

That should be all. I spent days figuring this song out, as I am going to cover it. I am
99% sure everything's right, just a couple things don't sound 100% right. I slowed a
couple riffs down in an audio editor to get them as close as possible. I'll be covering 
this soon, check my youtube page to see, http://www.youtube.com/americanmetalguitar, and you
can send me a message there if you have any suggestions for this tab, or corrections or whatever.
Добавлено: 10.08.2013
Другие материалы по этой песне:

Страница создана 31.05.2012
http://primanota.ru/lamb-of-god/king-me-chords.htm
Привет, Гость.
Предлагаем пройти революционный курс по гитаре.
Подарок от PrimaNota.Ru, забирай!