PrimaNota.ru - самый крупный в мире бесплатный архив песенных текстов, аккордов, табулатур и нот


Lamb Of God - Invictus - текст песни, таба, видео

Регистрация Запомнить меня
Войти через:  Facebook Google Twitter Vk Yandex Mail.ru

Lamb Of God - Invictus - текст песни, таба, видео

Печатать
Просмотров: 93
My Youtube channel: https://www.youtube.com/channel/UClo2x71cyuG5oRsYVkjMPnQ

D#|-------
A#|-------
F#|-------  The whole song, each riff where it should be from beginning to end (with solo)
C#|-21/1--  Note: the tab seems unreasonably long, because it repeats the riffs in order, you can just skip 
G#|-21/1--  through it
C#|-21/1--

D#|------------------------------------------------------------------------
A#|------------------------------------------------------------------6-6-6-
F#|------------------------------------------------------------------3-3-3-   2 times
C#|-5/2/5-4b-8/2---7-5----4-5-1-5b/2/5-4b-8/2---7-5------------------------ 
G#|-5/2/5-4b-8/2---7-5----4-5-1-5b/2/5-4b-8/2---7-5------------------------
C#|-5/2/5-4b-8/2-0-7-5-00-4-5-1-5b/2/5-4b-8/2-0-7-5-00-5-4-3-0-3-4-5-------
PM               .     ..                     .     .. . . . . . . .

D#|--------------------------
A#|--------------------------
F#|--------------------------  Mark/Willie uses a technique for this riff which is hard to explain, but if you
C#|--------------------------  play the entire riff, playing each note as a pinch harmonic while moving the 
G#|--------------------------  pick up and down across the string, it sounds like it (Pinch harmonics are 
C#|-2-3-2-6-5-3-2-3-5/6/5-3-2  indicated by a ^ in this tab)

D#|-------------------------------------------------------------------
A#|-------------------------------------------------------------------
F#|-------------------------------------------------------------------
C#|-----------------------------------------------------------------3-
G#|---------------------------2-----1-------------------6-5-----2-3---
C#|-2-3-2-6-5-3-2-3-5/6/5-3-2---3-2---2-3-2-6-5-3-2-3-6-----6-3-------
PM  . . . . . . . .       . .   . .   . . . . . . . . .     . . . .

D#|---------------------------------------------------------------------
A#|---------------------------------------------------------------------
F#|---------------------------------------------------------------------
C#|---------------------------------------------------------------------
G#|---------------------------2-----1-----------------------------------
C#|-2-3-2-6-5-3-2-3-5/6/5-3-2---3-2---2-3-2-6-5-3-2-3-00000000-88888888-
PM  . . . . . . . .       . .   . .   . . . . . . . .

D#|--------------------------------------------------------------------
A#|--------------------------------------------------------------------
F#|--------------------------------------------------------------------
C#|-2-3-2-6-5-3-2-3-5/6/5-3-2---------2-3-2-6-5-3-2-3---------------3--
G#|-2-3-2-6-5-3-2-3-5/6/5-3-2---------2-3-2-6-5-3-2-3---6-5-----3-2----
C#|-2-3-2-6-5-3-2-3-5/6/5-3-2-0-0-0-0-2-3-2-6-5-3-2-3-6-----6-3--------
PM                            . . . .                 .     . . . .

D#|---------------------------------------------------------------
A#|---------------------------------------------------------------
F#|---------------------------------------------------------------
C#|-2-3-2-6-5-3-2-3-5/6/5-3-2---------2-3-2-6-5-3-2-3-0-0-0-1-1-1-
G#|-2-3-2-6-5-3-2-3-5/6/5-3-2---------2-3-2-6-5-3-2-3-0-0-0-1-1-1-
C#|-2-3-2-6-5-3-2-3-5/6/5-3-2-0-0-0-0-2-3-2-6-5-3-2-3-0-0-0-1-1-1-
PM                            . . . .                 . . . . . .

D#|---------------------------------------------------------------------
A#|---------------------------------------------------------------------
F#|---------------------------------------------------------------------
C#|-2-2-2-2----------1-1-1-1-1-1-1-1-5-5-5-5-5-5-5-12-12-12-12-12-12-12-
G#|-2-2-2-2---3^-2^--1-1-1-1-1-1-1-1-5-5-5-5-5-5-5-12-12-12-12-12-12-12-
C#|-2-2-2-2-0-----3^-1-1-1-1-1-1-1-1-5-5-5-5-5-5-5-12-12-12-12-12-12-12-
PM          .

D#|-----------------------------------------------------------------------
A#|-----------------------------------------------------------------------
F#|-----------------------------------------------------------------------
C#|-2-2-------------------1-1-1-1-1-1-1-1-3-3-3-3-3-3-3-3-----------------
G#|-2-2---3^-2^--2^-------1-1-1-1-1-1-1-1-3-3-3-3-3-3-3-3-----------------
C#|-2-2-0-----3^----3^----1-1-1-1-1-1-1-1-3-3-3-3-3-3-3-3-000-000-000-12^-
PM      .                                                 ... ... ...

D#|------------------------------------------------------------------------
A#|------------------------------------------------------------------6-6-6-
F#|------------------------------------------------------------------3-3-3-   2 times
C#|-5/2/5-4b-8/2---7-5----4-5-1-5b/2/5-4b-8/2---7-5------------------------ 
G#|-5/2/5-4b-8/2---7-5----4-5-1-5b/2/5-4b-8/2---7-5------------------------
C#|-5/2/5-4b-8/2-0-7-5-00-4-5-1-5b/2/5-4b-8/2-0-7-5-00-5-4-3-0-3-4-5-------
PM               .     ..                     .     .. . . . . . . .

D#|---
A#|---
F#|---
C#|-2-
G#|-2-
C#|-2-

D#|-------------------------------------------------------------
A#|-------------------------------------------------------------
F#|-------------------------------------------------------------
C#|-----------------------------------------------------------3-
G#|-----------------------------------------------6-5-----2-3---
C#|-2-3-2-6-5-3-2-3-5/6/5-3-2---2-3-2-6-5-3-2-3-6-----6-3-------
PM  . . . . . . . .       . .   . . . . . . . . .     . . . .

D#|---------------------------------------------------------------
A#|---------------------------------------------------------------
F#|---------------------------------------------------------------
C#|---------------------------------------------------------------
G#|---------------------------------------------------------------
C#|-2-3-2-6-5-3-2-3-5/6/5-3-2---2-3-2-6-5-3-2-3-00000000-88888888-
PM  . . . . . . . .       . .   . . . . . . . .

D#|--------------------------------------------------------------------
A#|--------------------------------------------------------------------
F#|--------------------------------------------------------------------
C#|-2-3-2-6-5-3-2-3-5/6/5-3-2---------2-3-2-6-5-3-2-3---------------3--
G#|-2-3-2-6-5-3-2-3-5/6/5-3-2---------2-3-2-6-5-3-2-3---6-5-----3-2----
C#|-2-3-2-6-5-3-2-3-5/6/5-3-2-0-0-0-0-2-3-2-6-5-3-2-3-6-----6-3--------
PM                            . . . .                 .     . . . .

D#|---------------------------------------------------------------
A#|---------------------------------------------------------------
F#|---------------------------------------------------------------
C#|-2-3-2-6-5-3-2-3-5/6/5-3-2---------2-3-2-6-5-3-2-3-0-0-0-1-1-1-
G#|-2-3-2-6-5-3-2-3-5/6/5-3-2---------2-3-2-6-5-3-2-3-0-0-0-1-1-1-
C#|-2-3-2-6-5-3-2-3-5/6/5-3-2-0-0-0-0-2-3-2-6-5-3-2-3-0-0-0-1-1-1-
PM                            . . . .                 . . . . . .

D#|---------------------------------------------------------------------
A#|---------------------------------------------------------------------
F#|---------------------------------------------------------------------
C#|-2-2-2-2----------1-1-1-1-1-1-1-1-5-5-5-5-5-5-5-12-12-12-12-12-12-12-
G#|-2-2-2-2---3^-2^--1-1-1-1-1-1-1-1-5-5-5-5-5-5-5-12-12-12-12-12-12-12-
C#|-2-2-2-2-0-----3^-1-1-1-1-1-1-1-1-5-5-5-5-5-5-5-12-12-12-12-12-12-12-
PM          .

D#|----------------------------------------------------------------
A#|----------------------------------------------------------------
F#|----------------------------------------------------------------
C#|-2-2-------------------1-1-1-1-1-1-1-1-3-3-3-3-3-3-3-3----------
G#|-2-2---3^-2^--2^-------1-1-1-1-1-1-1-1-3-3-3-3-3-3-3-3----------
C#|-2-2-0-----3^----3^----1-1-1-1-1-1-1-1-3-3-3-3-3-3-3-3-000-00-0-
PM      .                                                 ... .. .

D#|---------------------------------------------------------------------
A#|---------------------------------------------------------------------
F#|---------------------------------------------------------------------
C#|-2-2-2-2----------1-1-1-1-1-1-1-1-5-5-5-5-5-5-5-12-12-12-12-12-12-12-
G#|-2-2-2-2---3^-2^--1-1-1-1-1-1-1-1-5-5-5-5-5-5-5-12-12-12-12-12-12-12-
C#|-2-2-2-2-0-----3^-1-1-1-1-1-1-1-1-5-5-5-5-5-5-5-12-12-12-12-12-12-12-
PM          .

D#|-----------------------------------------------------------------------
A#|-----------------------------------------------------------------------
F#|-----------------------------------------------------------------------
C#|-2-2-------------------1-1-1-1-1-1-1-1-3-3-3-3-3-3-3-3-----------------
G#|-2-2---3^-2^--2^-------1-1-1-1-1-1-1-1-3-3-3-3-3-3-3-3-----------------
C#|-2-2-0-----3^----3^----1-1-1-1-1-1-1-1-3-3-3-3-3-3-3-3-000-000-000-12^-
PM      .                                                 ... ... ...

D#|------------------------------------------------------------------------
A#|------------------------------------------------------------------6-6-6-
F#|------------------------------------------------------------------3-3-3-   2 times
C#|-5/2/5-4b-8/2---7-5----4-5-1-5b/2/5-4b-8/2---7-5------------------------ 
G#|-5/2/5-4b-8/2---7-5----4-5-1-5b/2/5-4b-8/2---7-5------------------------
C#|-5/2/5-4b-8/2-0-7-5-00-4-5-1-5b/2/5-4b-8/2-0-7-5-00-5-4-3-0-3-4-5-------
PM               .     ..                     .     .. . . . . . . .

D#|--------------
A#|--------------
F#|-------------- Pre solo
C#|-2-------20/1-
G#|-2-------20/1-
C#|-2-------20/1-

Rhythm 
D#|------------------------------------------------------------------------------------
A#|------------------------------------------------------------------------------------
F#|------------------------------------------------------------------------------------ Play until solo ends
C#|------------------------------------------------------------------------------------
G#|---------------------------------------2^-------------------------------------------
C#|-2-5-2-5-0-2-8-2-8-0-2-7-2-7-0-2-3-5-3----5-3-2-2-5-2-5-0-2-8-2-8-0-2-7-2-7-000-111-
PM                              . . . . .    . . .                             ... ...

D#|-----------
A#|-----------
F#|-----------
C#|-0-000-111- When the solo ends
G#|-0-000-111-
C#|-0-000-111-

D#|----------------------------------------------------------------------------
A#|----------------------------------------------------------------------------
F#|----------------------------------------------------------------------------
C#|-2-5-2-5-0-2-8-2-8-0-2-7-2-7----3-2-0-2-5-2-5-0-2-8-2-8-0-2-7-2-7-0-000-111-
G#|-2-5-2-5-0-2-8-2-8-0-2-7-2-7----3-2-0-2-5-2-5-0-2-8-2-8-0-2-7-2-7-0-000-111-
C#|-2-5-2-5-0-2-8-2-8-0-2-7-2-7-6^-3-2-0-2-5-2-5-0-2-8-2-8-0-2-7-2-7-0-000-111-
PM                                 . . .

Solo
D#|-22p-19p----------------------------------------------------------------------
A#|-----------------------------------------------2/10-10-----8---10-11-10---15b-
F#|-----------------------------------------------1/9----9b-9---9----------9-----
C#|-----------------------5-5^h6^h5^---5-----------------------------------------
G#|---------0-2-3-5-3-5-6------------7---7-5-2/7b--------------------------------
C#|------------------------------------------------------------------------------
PM          . . . . . . .            . . . .

D#|----------------------------------------------------------------------------
A#|---------------------------------------------------11-12-14-12-13-15-12-15b-
F#|-14-12-11---------14-12-11----------------11-12-14--------------------------
C#|----------14-12-11---------14-12-11-12-14-----------------------------------
G#|----------------------------------------------------------------------------
C#|----------------------------------------------------------------------------

D#|-----------------------------------------------------------------------------------------
A#|-----------------------------------------------------------------------------------------
F#|-19b-16-19-15b-18-15-14b-17-14----17-19h17----17h19h17----17h20h17----17h20h17----17-19b-
C#|-------------------------------19----------19----------19----------19----------19--------
G#|-----------------------------------------------------------------------------------------
C#|-----------------------------------------------------------------------------------------

D#|---------------10-13-15h13-10-15h13-10------------------------17p-------------
A#|-19b-19-17-14b-------------------------15h13-10-15h13-10----------------------
F#|----------------------------------------------------------12b-----------------
C#|--------------------------------------------------------------------0-000-111-
G#|--------------------------------------------------------------------0-000-111-
C#|--------------------------------------------------------------------0-000-111-
PM                                                                     . ... ...

D#|--------------------------
A#|--------------------------
F#|--------------------------  Using the technique this time
C#|--------------------------  
G#|-------------------------- 
C#|-2-3-2-6-5-3-2-3-5/6/5-3-2

D#|--------------------------------------------------------------------
A#|--------------------------------------------------------------------
F#|--------------------------------------------------------------------
C#|-2-3-2-6-5-3-2-3-5/6/5-3-2---------2-3-2-6-5-3-2-3---------------3--
G#|-2-3-2-6-5-3-2-3-5/6/5-3-2---------2-3-2-6-5-3-2-3---6-5-----3-2----
C#|-2-3-2-6-5-3-2-3-5/6/5-3-2-0-0-0-0-2-3-2-6-5-3-2-3-6-----6-3--------
PM                            . . . .                 .     . . . .

D#|---------------------------------------------------------------
A#|---------------------------------------------------------------
F#|---------------------------------------------------------------
C#|-2-3-2-6-5-3-2-3-5/6/5-3-2---------2-3-2-6-5-3-2-3-0-0-0-1-1-1-
G#|-2-3-2-6-5-3-2-3-5/6/5-3-2---------2-3-2-6-5-3-2-3-0-0-0-1-1-1-
C#|-2-3-2-6-5-3-2-3-5/6/5-3-2-0-0-0-0-2-3-2-6-5-3-2-3-0-0-0-1-1-1-
PM                            . . . .                 . . . . . .

D#|---------------------------------------------------------------------
A#|---------------------------------------------------------------------
F#|---------------------------------------------------------------------
C#|-2-2-2-2----------1-1-1-1-1-1-1-1-5-5-5-5-5-5-5-12-12-12-12-12-12-12-
G#|-2-2-2-2---3^-2^--1-1-1-1-1-1-1-1-5-5-5-5-5-5-5-12-12-12-12-12-12-12-
C#|-2-2-2-2-0-----3^-1-1-1-1-1-1-1-1-5-5-5-5-5-5-5-12-12-12-12-12-12-12-
PM          .

D#|----------------------------------------------------------------
A#|----------------------------------------------------------------
F#|----------------------------------------------------------------
C#|-2-2-------------------1-1-1-1-1-1-1-1-3-3-3-3-3-3-3-3----------
G#|-2-2---3^-2^--2^-------1-1-1-1-1-1-1-1-3-3-3-3-3-3-3-3----------
C#|-2-2-0-----3^----3^----1-1-1-1-1-1-1-1-3-3-3-3-3-3-3-3-000-00-0-
PM      .                                                 ... .. .

D#|---------------------------------------------------------------------
A#|---------------------------------------------------------------------
F#|---------------------------------------------------------------------
C#|-2-2-2-2----------1-1-1-1-1-1-1-1-5-5-5-5-5-5-5-12-12-12-12-12-12-12-
G#|-2-2-2-2---3^-2^--1-1-1-1-1-1-1-1-5-5-5-5-5-5-5-12-12-12-12-12-12-12-
C#|-2-2-2-2-0-----3^-1-1-1-1-1-1-1-1-5-5-5-5-5-5-5-12-12-12-12-12-12-12-
PM          .

D#|-----------------------------------------------------------------------
A#|-----------------------------------------------------------------------
F#|-----------------------------------------------------------------------
C#|-2-2-------------------1-1-1-1-1-1-1-1-3-3-3-3-3-3-3-3-----------------
G#|-2-2---3^-2^--2^-------1-1-1-1-1-1-1-1-3-3-3-3-3-3-3-3-----------------
C#|-2-2-0-----3^----3^----1-1-1-1-1-1-1-1-3-3-3-3-3-3-3-3-000-000-000-12^-
PM      .                                                 ... ... ...

D#|------------------------------------------------------------------------
A#|------------------------------------------------------------------6-6-6-
F#|------------------------------------------------------------------3-3-3-   6 times
C#|-5/2/5-4b-8/2---7-5----4-5-1-5b/2/5-4b-8/2---7-5------------------------ 
G#|-5/2/5-4b-8/2---7-5----4-5-1-5b/2/5-4b-8/2---7-5------------------------
C#|-5/2/5-4b-8/2-0-7-5-00-4-5-1-5b/2/5-4b-8/2-0-7-5-00-5-4-3-0-3-4-5-------
PM               .     ..                     .     .. . . . . . . .
Добавлено: 14.05.2016
Другие материалы по этой песне:
  • Аккорды и текст

Страница создана 22.11.2014
http://primanota.ru/lamb-of-god/invictus-chords.htm
Привет, Гость.
Предлагаем пройти революционный курс по гитаре.
Подарок от PrimaNota.Ru, забирай!