PrimaNota.ru - самый крупный в мире бесплатный архив песенных текстов, аккордов, табулатур и нот


Lamb Of God - Embers - таба, видео

Регистрация Запомнить меня
Войти через:  Facebook Google Twitter Vk Yandex Mail.ru

Lamb Of God - Embers - таба, видео

Печатать
Просмотров: 187
Уроки эстрадного вокала в Санкт-Петербурге
Авторы: Lamb of God

|--------------------------------------------------------------------------------------------------------|
|                                 LAMB OF GOD - EMBERS (feat. Chino Moreno)                              |
|                                       Album: Sturm and Drang (2015)                                    |
|--------------------------------------------------------------------------------------------------------|

                   If you have questions or corrections feel free to send me a message:
                                http://profile.ultimate-guitar.com/godspeedy/
                                    https://www.facebook.com/Godspeedy14

                        *************************************************************
                        * NOTE: If you need a playthrough, check out my cover here: *
                        *       https://www.youtube.com/watch?v=yg6qNU1dfMI         *
                        *************************************************************
                     
                 Also check out my Youtube channel: http://www.youtube.com/user/Godspeedy14

                                        Tuning: 6 strings DADGBE 
                                                    
*********************************************GUITAR NOTATIONS*********************************************
*                                                                                                        *
*                                      | *   palm mute           |                                       *
*                                      | s   slide               |                                       *
*                                      | h   hammer-on           |                                       *
*                                      | p   pull-off            |                                       *
*                                      | x   Mute note           |                                       *
*                                      | b   bend                |                                       *
*                                      | r   release             |                                       *
*                                      | ..  let ring            |                                       *
*                                      | П   downstroke          |                                       *
*                                      | V   upstroke            |                                       *
*                                                                                                        *
**********************************************************************************************************

|--------------------------------------------------------------------------------------------------------|
|                                          INTRO (00:00-00:52)                                           |
|--------------------------------------------------------------------------------------------------------|

I. Guitar 1 (w/ dist and lo-fi effect)

   П     П   П     П   П    П    П    П    П   П    П    П   П    П   П    П    П   П    П   П
E|--------------|---------|-------------|---------|------------|---------|------------|---------|
B|--------------|---------|-------------|---------|------------|---------|------------|---------|
G|------12---11-|--8---8--|------11---8-|--7---7--|------8---5-|--7---7--|------8---5-|--7---7--| x2
D|-0-----x---x--|--x---x--|-0----x----x-|--x---x--|-0----x---x-|--x---x--|-0----x---x-|--x---x--|
A|-0----10---9--|--6---6--|-0----9----6-|--5---5--|-0----6---3-|--5---5--|-0----6---3-|--5---5--|
D|-0------------|---------|-0-----------|---------|-0----------|---------|-0----------|---------|

II. Guitars 1 and 2 (w/ dist)

   П V П V П V П V П V П V П V П V   П V П V П V П V П V П V П V П V 
E|---------------------------------|---------------------------------|
B|---------------------------------|---------------------------------|
G|---------------------------------|---------------------------------| x8
D|---------------------------------|---------------------------------|
A|---------------------------------|---------------------------------|
D|-0-0-0-0-0-0-0-0-0-0-0-0-0-0-0-0-|-0-0-0-0-0-0-0-0-1-4-1-0-1-4-1-0-|
   * * * * * * * * * * * * * * * *   * * * * * * * * 

   Guitar 3 (w/ dist)

   П     П   П     П   П    П    П    П    П   П    П    П   П    П   П    П    П   П    П   П
E|--------------|---------|-------------|---------|------------|---------|------------|---------|
B|--------------|---------|-------------|---------|------------|---------|------------|---------|
G|------12---11-|--8---8--|------11---8-|--7---7--|------8---5-|--7---7--|------8---5-|--7---7--| x2
D|-0-----x---x--|--x---x--|-0----x----x-|--x---x--|-0----x---x-|--x---x--|-0----x---x-|--x---x--|
A|-0----10---9--|--6---6--|-0----9----6-|--5---5--|-0----6---3-|--5---5--|-0----6---3-|--5---5--|
D|-0------------|---------|-0-----------|---------|-0----------|---------|-0----------|---------|

|--------------------------------------------------------------------------------------------------------|
|                                          VERSE (00:52-01:16)                                           |
|--------------------------------------------------------------------------------------------------------|

Guitars 1 and 2 (w/ dist)

   П   П V П V П   П V П V П V П V   П V П   П     V П V П V П  ----------|
E|---------------------------------|---------------------------------|    |
B|---------------------------------|---------------------------------|    |
G|---------------------------------|---------------------------------|    |
D|---------------------------------|---------4h5p4---4---------------|    |
A|-3h5---------3h5-----------------|-----5h6-------6---6-5-3-0h3h5h6-|    |
D|-----0-0-0-0-----0-0-0-0-0-0-0-0-|-0-0-----------------------------|    |
       * * * *     * * * * * * * *   * *           * * * * *              |
                                                                          |
   П   П V П V П   П V П V П V П V   П V П   П     V П V П V П V П V      |
E|---------------------------------|---------------------------------|    |
B|---------------------------------|---------------------------------|    |
G|---------------------------------|---------------------------------|    |
D|---------------------------------|---------4h5p4---4-------4-5-7-8-|    |
A|-3h5---------3h5-----------------|-----5h6-------6---6-5-6---------|    |
D|-----0-0-0-0-----0-0-0-0-0-0-0-0-|-0-0-----------------------------|    |
       * * * *     * * * * * * * *   * *           * * * * *              |
                                                                          | x2
   П   П V П V П   П V П V П V П V   П V П   П     V П V П V П            |
E|---------------------------------|---------------------------------|    |
B|---------------------------------|---------------------------------|    |
G|---------------------------------|---------------------------------|    |
D|---------------------------------|---------4h5p4---4---------------|    |
A|-3h5---------3h5-----------------|-----5h6-------6---6-5-3-0h3h5h6-|    |
D|-----0-0-0-0-----0-0-0-0-0-0-0-0-|-0-0-----------------------------|    |
       * * * *     * * * * * * * *   * *           * * * * *              |
                                                                          |
   П   П V П V П   П V П V П V П V    П  П V П V   П  П V П V             |
E|---------------------------------|--------------------------|           |
B|---------------------------------|--------------------------|           |
G|---------------------------------|--------------------------|           |
D|-------------------------------3-|--3--------1---1----------|           |
A|-3h5---------3h5---------------3-|--3--------1---1----------|           |
D|-----0-0-0-0-----0-0-0-0-0-0-0-3-|--3--0-0-0-1---1--0-0-0-0-|           |
       * * * *     * * * * * * *         * * *        * * * * ------------|
                                     
|--------------------------------------------------------------------------------------------------------|
|                                        PRE-CHORUS (01:16-01:23)                                        |
|--------------------------------------------------------------------------------------------------------|

Guitars 1 and 2 (w/ dist)

  (slow bend with tremolo picking on the 2nd fret)

   П V П V П V П V П V П V П V П V   П V П V П V П V П V П V П V П V 
E|---------------------------------|---------------------------------|
B|---------------------------------|---------------------------------|
G|---------------------------------|---------------------------------|
D|---------------------------------|---------------------------------|
A|---------------------------------|---------------------------------|
D|-2b2b2b2b2b2b2b2b2b2b2b2b2b2b2b2-|b2b2b2b2b2b2b2b2b2b2b2b2b2b2b2b2b|

  (slow release with tremolo picking on the 2nd fret)

   П V П V П V П V П V П V П V П V   П V П V П V П V П V П V П V П V 
E|---------------------------------|---------------------------------|
B|---------------------------------|---------------------------------|
G|---------------------------------|---------------------------------|
D|---------------------------------|---------------------------------|
A|---------------------------------|---------------------------------|
D|-2r2r2r2r2r2r2r2r2r2r2r2r2r2r2r2-|r2r2r2r2r2r2r2r2r2r2r2r2r2r2r2r2r|

|--------------------------------------------------------------------------------------------------------|
|                                          CHORUS (01:23-01:51)                                          |
|--------------------------------------------------------------------------------------------------------|

I. Guitars 1 and 2 (w/ dist)

   П   П  V  П  V  П  V   П  V  П  V  П V П V П V П V 
E|----------------------|-----------------------------|
B|----------------------|-----------------------------|
G|----------------------|-----------------------------|
D|-0---0--0--5--5--5--4-|-4--4--1--1------------------|
A|-0---0--0--5--5--5--4-|-4--4--1--1------------------|
D|-0---0--0--5--5--5--4-|-4--4--1--1--1-4-1-0-1-4-1-0-|

   П   П  V  П  V  П  V   П  V  П  V  П V П V П V П V 
E|----------------------|-----------------------------|
B|----------------------|-----------------------------|
G|----------------------|-----------------------------|
D|-0---0--0--4--4--4--1-|-1--1--0--0------------------|
A|-0---0--0--4--4--4--1-|-1--1--0--0------------------|
D|-0---0--0--4--4--4--1-|-1--1--0--0--1-4-1-0-1-4-1-0-|

   П   П  V  П  П  П  П    П  V  П  V  П  V  П V 
E|----------------------|------------------------|
B|----------------------|------------------------|
G|--------------------5-|--5--5--5--5--5--5------|
D|-0---0--0-----------5-|--5--5--5--5--5--5------|
A|-0---0--0--0--0--0--3-|--3--3--3--3--3--3--0-0-|
D|-0---0--0--0--0--0----|--------------------0-0-|
             *  *  *                         * *

   П   П  V  П  V  П  П    П  V  П  V  П  V  П V 
E|----------------------|------------------------|
B|----------------------|------------------------|
G|--------------------3-|--3--3--3--3--3--3------|
D|-0---0--0--0--0-----3-|--3--3--3--3--3--3------|
A|-0---0--0--0--0--0--1-|--1--1--1--1--1--1--0-0-|
D|-0---0--0--0--0--0----|--------------------0-0-|
                   *                         * *
 
   П   П  V  П  V  П  V   П  V  П  V  П V П V П V П V
E|----------------------|-----------------------------|
B|----------------------|-----------------------------|
G|----------------------|-----------------------------|
D|-0---0--0--5--5--5--4-|-4--4--1--1------------------|
A|-0---0--0--5--5--5--4-|-4--4--1--1------------------|
D|-0---0--0--5--5--5--4-|-4--4--1--1--1-4-1-0-1-4-1-0-|

   П   П  V  П  V  П  V   П  V  П  V  П V П V П V П V
E|----------------------|-----------------------------|
B|----------------------|-----------------------------|
G|----------------------|-----------------------------|
D|-0---0--0--4--4--4--1-|-1--1--0--0------------------|
A|-0---0--0--4--4--4--1-|-1--1--0--0------------------|
D|-0---0--0--4--4--4--1-|-1--1--0--0--1-4-1-0-1-4-1-0-|

   П   П  V  П  П  П  П    П  V  П  V  П  V  П V
E|----------------------|------------------------|
B|----------------------|------------------------|
G|--------------------5-|--5--5--5--5--5--5------|
D|-0---0--0--0--0-----5-|--5--5--5--5--5--5------|
A|-0---0--0--0--0--0--3-|--3--3--3--3--3--3--0-0-|
D|-0---0--0--0--0--0----|--------------------0-0-|
                   *                         * *

   П   П  V  П  П  П  П    П  V  П  V  П  V  П V
E|----------------------|------------------------|
B|----------------------|------------------------|
G|--------------------3-|--3--3--3--3--3--3------|
D|-0---0--0--0--0-----3-|--3--3--3--3--3--3------|
A|-0---0--0--0--0--0--1-|--1--1--1--1--1--1--0-0-|
D|-0---0--0--0--0--0----|--------------------0-0-|
                   *                         * *

   Guitar 3 (w/ dist)

   П   П  V  П    V   П  V    П   V   П  V  П V П V П V П V
E|--------------------------|-------------------------------|
B|--------------------------|-------------------------------|
G|-----------12--12--12--11-|-11--11--8--8------------------|
D|-0---0--0---x---x---x--x--|-x---x---x--x------------------|
A|-0---0--0--10--10--10--9--|-9---9---6--6------------------|
D|-0---0--0-----------------|---------------1-4-1-0-1-4-1-0-|
 
  П   П  V   П   V   П   V   П  V  П  V  П V П V П V П V
E|-------------------------|-----------------------------|
B|-------------------------|-----------------------------|
G|-----------11--11--11--8-|-8--8--7--7------------------|
D|-0---0--0--x---x---x---x-|-x--x--x--x------------------|
A|-0---0--0--9---9---9---6-|-6--6--5--5------------------|
D|-0---0--0----------------|-------------1-4-1-0-1-4-1-0-|

   П   П  V  П  П  П  П    П  V  П  V  П  V  П V
E|----------------------|------------------------|
B|----------------------|------------------------|
G|--------------------5-|--5--5--5--5--5--5------|
D|-0---0--0-----------5-|--5--5--5--5--5--5------|
A|-0---0--0--0--0--0--3-|--3--3--3--3--3--3--0-0-|
D|-0---0--0--0--0--0----|--------------------0-0-|
             *  *  *                         * *

   П   П  V  П  П  П  П    П  V  П  V  П  V  П V
E|----------------------|------------------------|
B|----------------------|------------------------|
G|--------------------3-|--3--3--3--3--3--3------|
D|-0---0--0--0--0-----3-|--3--3--3--3--3--3------|
A|-0---0--0--0--0--0--1-|--1--1--1--1--1--1--0-0-|
D|-0---0--0--0--0--0----|--------------------0-0-|
                   *                         * *

   П   П  V  П    V   П  V    П   V   П  V  П V П V П V П V
E|--------------------------|-------------------------------|
B|--------------------------|-------------------------------|
G|-----------12--12--12--11-|-11--11--8--8------------------|
D|-0---0--0---x---x---x--x--|-x---x---x--x------------------|
A|-0---0--0--10--10--10--9--|-9---9---6--6------------------|
D|-0---0--0-----------------|---------------1-4-1-0-1-4-1-0-|

  П   П  V   П   V   П   V   П  V  П  V  П V П V П V П V
E|-------------------------|-----------------------------|
B|-------------------------|-----------------------------|
G|-----------11--11--11--8-|-8--8--7--7------------------|
D|-0---0--0--x---x---x---x-|-x--x--x--x------------------|
A|-0---0--0--9---9---9---6-|-6--6--5--5------------------|
D|-0---0--0----------------|-------------1-4-1-0-1-4-1-0-|

   П   П  V  П  П  П  П    П  V  П  V  П  V  П V
E|----------------------|------------------------|
B|----------------------|------------------------|
G|--------------------5-|--5--5--5--5--5--5------|
D|-0---0--0--0--0-----5-|--5--5--5--5--5--5------|
A|-0---0--0--0--0--0--3-|--3--3--3--3--3--3--0-0-|
D|-0---0--0--0--0--0----|--------------------0-0-|
                   *                         * *

   П   П  V  П  П  П  П    П  V  П  V  П  V  П V
E|----------------------|------------------------|
B|----------------------|------------------------|
G|--------------------3-|--3--3--3--3--3--3------|
D|-0---0--0--0--0-----3-|--3--3--3--3--3--3------|
A|-0---0--0--0--0--0--1-|--1--1--1--1--1--1--0-0-|
D|-0---0--0--0--0--0----|--------------------0-0-|
                   *                         * *

II. Guitars 1 and 2 (w/ dist)

   П             slide up and down
E|--------|-----------|
B|--------|-----------|
G|--------|-----------|
D|-0------|-------1s9-|
A|-0------|-------1s9-|
D|-0------|-------1s9-|

|--------------------------------------------------------------------------------------------------------|
|                                         VERSE 2 (01:51-02:15)                                          |
|--------------------------------------------------------------------------------------------------------|
                                              same as VERSE
|--------------------------------------------------------------------------------------------------------|
|                                       PRE-CHORUS 2 (02:15-02:22)                                       |
|--------------------------------------------------------------------------------------------------------|
                                           same as PRE-CHORUS
|--------------------------------------------------------------------------------------------------------|
|                                         CHORUS 2 (02:22-02:47)                                         |
|--------------------------------------------------------------------------------------------------------|
                                              same as CHORUS
|--------------------------------------------------------------------------------------------------------|
|                                          OUTRO (02:47-04:58)                                           |
|--------------------------------------------------------------------------------------------------------|

I. Guitars 1 and 2 (w/ dist)
   
   П  П  П  П  П  П  П  П   П  П  П  П  П  П  П  П   П .......................................
E|------------------------|------------------------|-------|------|------|------|------|------|
B|------------------------|------------------------|-------|------|------|------|------|------|
G|------------------------|----------7--7--7--7--7-|-9-----|------|------|------|------|------|
D|------------------------|-5--5--5--5--5--5--5--5-|-7-----|------|------|------|------|------|
A|-5--5--5--5--5--5--5--5-|-5--5--5--5--5--5--5--5-|-7-----|------|------|------|------|------|
D|-5--5--5--5--5--5--5--5-|-5--5--5--5--5--5--5--5-|-7-----|------|------|------|------|------|
   *  *  *  *  *  *  *  *   

   Guitar 3 (w/ clean and reverb)

   П  П  П  П  П  П  П  П   П  П  П  П  П  П  П  V
   ................................................
E|------------------------|------------------------|
B|------------------------|------------------------|
G|-------9--------9-------|-9--------9--------9----|
D|----7--------7--------7-|-------7--------7-----7-|
A|-7--------7--------7----|----7--------7----------|
D|------------------------|------------------------|

   П  П  П  П  П  П  П  П   П  П  П  П  П  П  П  V
  .................................................
E|------------------------|------------------------|
B|------------------------|------------------------|
G|-------9--------9-------|-9--------9--------9----|
D|----7--------7--------7-|-------7--------7-----7-|
A|-8--------8--------8----|----8--------8----------|
D|------------------------|------------------------|

   П  П  П  П  П  П  П  П   П  П  П  П  П  П  П  V
  .................................................
E|------------------------|------------------------|
B|------------------------|------------------------|
G|-------9--------9-------|-9--------9--------9----|
D|----7--------7--------7-|-------7--------7-----7-|
A|-7--------7--------7----|----7--------7----------|
D|------------------------|------------------------|

II. Guitars 1 and 2 (w/ dist)

   П   П  V   П  V  П V    П  V  П   П  V  П  V   П   П  V   П  V  П V    П  V  П   П  V  П  V
E|----------------------|-----------------------|----------------------|-----------------------|
B|----------------------|-----------------------|----------------------|-----------------------|
G|----------------------|-----------------------|----------------------|-----------------------|
D|----------------------|-----------------------|----------------------|-----------------------|
A|----------------------|-----------------------|----------------------|-----------------------|
D|-0---0--0--12-12-12-0-|--0--0--0--12-12-12-12-|-0---0--0--12-12-12-0-|--0--0--0--12-12-12-12-|

                                                ----------------------------------------------------|
   П  П  П  П  П  П  П  П   П  П  П  П  П  П  П  V                                                  |
   ................................................                                                 |
E|------------------------|------------------------|                                                |
B|------------------------|------------------------|                                                |
G|-------9--------9-------|-9--------9--------9----|                                                |
D|----7--------7--------7-|-------7--------7-----7-|                                                |
A|-7--------7--------7----|----7--------7----------|                                                |
D|------------------------|------------------------|                                                |
                                                                                                    |
   П  П  П  П  П  П  П  П   П  П  П  П  П  П  П  V                                                  |
  .................................................                                                 |
E|------------------------|------------------------|                                                |
B|------------------------|------------------------|                                                |
G|-------9--------9-------|-9--------9--------9----|                                                |
D|----7--------7--------7-|-------7--------7-----7-|                                                |
A|-8--------8--------8----|----8--------8----------|                                                |
D|------------------------|------------------------|                                                |
                                                                                                    |
   П  П  П  П  П  П  П  П   П  П  П  П  П  П  П  V                                                  |
  .................................................                                                 |
E|------------------------|------------------------|                                                |
B|------------------------|------------------------|                                                |
G|-------9--------9-------|-9--------9--------9----|                                                |
D|----7--------7--------7-|-------7--------7-----7-|                                                |
A|-7--------7--------7----|----7--------7----------|                                                |
D|------------------------|------------------------|                                                |
                                                                                                    |
   П   П  V   П  V  П V    П  V  П   П  V  П  V   П   П  V   П  V  П V    П  V  П   П  V  П  V      |
E|----------------------|-----------------------|----------------------|-----------------------|    |
B|----------------------|-----------------------|----------------------|-----------------------|    |
G|----------------------|-----------------------|----------------------|-----------------------|    |
D|----------------------|-----------------------|----------------------|-----------------------|    |
A|----------------------|-----------------------|----------------------|-----------------------|    |
D|-0---0--0--12-12-12-0-|--0--0--0--12-12-12-12-|-0---0--0--12-12-12-0-|--0--0--0--12-12-12-12-|    |
                                                                                                    | x2
   П  П  П  П  П  П  П  П   П  П  П  П  П  П  П  V                                                  |
   ................................................                                                 |
E|------------------------|------------------------|                                                |
B|------------------------|------------------------|                                                |
G|-------9--------9-------|-9--------9--------9----|                                                |
D|----7--------7--------7-|-------7--------7-----7-|                                                |
A|-7--------7--------7----|----7--------7----------|                                                |
D|------------------------|------------------------|                                                |
                                                                                                    |
   П  П  П  П  П  П  П  П   П  П  П  П  П  П  П  V                                                  |
  .................................................                                                 |
E|------------------------|------------------------|                                                |
B|------------------------|------------------------|                                                |
G|-------9--------9-------|-9--------9--------9----|                                                |
D|----7--------7--------7-|-------7--------7-----7-|                                                |
A|-8--------8--------8----|----8--------8----------|                                                |
D|------------------------|------------------------|                                                |
                                                                                                    |
   П  П  П  П  П  П  П  П   П  П  П  П  П  П  П  V                                                  |
  .................................................                                                 |
E|------------------------|------------------------|                                                |
B|------------------------|------------------------|                                                |
G|-------9--------9-------|-9--------9--------9----|                                                |
D|----7--------7--------7-|-------7--------7-----7-|                                                |
A|-7--------7--------7----|----7--------7----------|                                                |
D|------------------------|------------------------|                                                |
                                                                                                    |
   П   П  V   П  V  П V    П  V  П   П  V  П  V   П   П  V   П  V  П V    П  V  П   П  V  П  V      |
E|----------------------|-----------------------|----------------------|-----------------------|    |
B|----------------------|-----------------------|----------------------|-----------------------|    |
G|----------------------|-----------------------|----------------------|-----------------------|    |
D|----------------------|-----------------------|----------------------|-----------------------|    |
A|----------------------|-----------------------|----------------------|-----------------------|    |
D|-0---0--0--14-14-14-0-|--0--0--0--12-12-12-12-|-0---0--0--14-14-14-0-|--0--0--0--12-12-12-12-|    |
                                                                                --------------------|

   П  П  П  П  П  П  П  П   П  П  П  П  П  П  П  V
   ................................................
E|------------------------|------------------------|
B|------------------------|------------------------|
G|-------9--------9-------|-9--------9--------9----|
D|----7--------7--------7-|-------7--------7-----7-|
A|-7--------7--------7----|----7--------7----------|
D|------------------------|------------------------|

   П  П  П  П  П  П  П  П   П  П  П  П  П  П  П  V
  .................................................
E|------------------------|------------------------|
B|------------------------|------------------------|
G|-------9--------9-------|-9--------9--------9----|
D|----7--------7--------7-|-------7--------7-----7-|
A|-8--------8--------8----|----8--------8----------|
D|------------------------|------------------------|

   П  П  П  П  П  П  П  П   П  П  П  П  П  П  П  V
  .................................................
E|------------------------|------------------------|
B|------------------------|------------------------|
G|-------9--------9-------|-9--------9--------9----|
D|----7--------7--------7-|-------7--------7-----7-|
A|-7--------7--------7----|----7--------7----------|
D|------------------------|------------------------|

   П ............................................................
E|-------|-------|-------|-------|-------|-------|-------|-------|
B|-------|-------|-------|-------|-------|-------|-------|-------|
G|-------|-------|-------|-------|-------|-------|-------|-------|
D|-------|-------|-------|-------|-------|-------|-------|-------|
A|-------|-------|-------|-------|-------|-------|-------|-------|
D|-0-----|-------|-------|-------|-------|-------|-------|-------|

Добавлено: 02.09.2015
Другие материалы по этой песне:

Страница создана 02.09.2015
http://primanota.ru/lamb-of-god/embers-chords.htm
Привет, Гость.
Предлагаем пройти революционный курс по гитаре.
Подарок от PrimaNota.Ru, забирай!