PrimaNota.ru - самый крупный в мире бесплатный архив песенных текстов, аккордов, табулатур и нот


Lamb Of God - Cheated - текст песни, таба, видео

Регистрация Запомнить меня
Войти через:  Facebook Google Twitter Vk Yandex Mail.ru

Lamb Of God - Cheated - текст песни, таба, видео

Печатать
Просмотров: 112
LAMB OF GOD
Cheated
DROP C#
it looks messed up in the edit tab section part i know 
cause i copied/pasted it to hear from notepad
however this should not matter because it looks fine in preview tab
and thats how it looks on the site :)

*=palm mute

tabbed by andherembrace


------------------------------------------------------------------------------|
------------------------------------------------------------------------------|
------------------------------------------------------------------------------|
------------------------------------------------------------------------------|
55--5--777-8-7--55--5--777-8-7-0--------------------------------3-------------|
55--5--777-8-7--55--5--777-8-7-0-00000000000000-6-5-3-0-3-0-3-5--6-5-0-3-0-3-5|
       ***             ***       **************   * * * * * * *  * * * * * * *

--------------------------------------------------------------------|
--------------------------------------------------------------------|
--------------------------------------------------------------------|
--------------------------------------------------------------------|
55--5--777-8-7--55--5--777-8-7-0--------------------6-6------3-4----|
55--5--777-8-7--55--5--777-8-7-0-00000000000000-000-6-6--000-3-4----|
       ***             ***       ************** ***      ***

------------------------------------------------------------------------------|
------------------------------------------------------------------------------|
------------------------------------------------------------------------------|
------------------------------------------------------------------------------|
55--5--777-8-7--55--5--777-8-7-0--------------------------------3-------------|
55--5--777-8-7--55--5--777-8-7-0-00000000000000-6-5-3-0-3-0-3-5--6-5-0-3-0-3-5|
       ***             ***       **************   * * * * * * *  * * * * * * *

--------------------------------|
--------------------------------|
--------------------------------|
--------------------------------|
55--5--777-8-7--55--5--777-8-7--|
55--5--777-8-7--55--5--777-8-7--|
       ***             ***       

0:20
L
--------------------------------------------------------------|
--------------------------------------------------------------|
----------------------P----------------------------P----------|
--^-------------------H---^----^-------------------H----^-----|
-1-0--0--0--0----------)-3-0--1-0--0--0--0----------)--3-0----|
-1-0-00-00-00-0-0-0-0-6--3-0--1-0-00-00-00-0-0-0-0-6---3-0----|
     *  *  *  * * * *             *  *  *  * * * *  
R
---------------------------------------------------------------|
---------------------------------------------------------------|
---------------------------------------------------------------|
--^--------------------^---^----^--------------------^---^-----|
-1-0--0--0--0---------6-5-3-0--1-0--0--0--0---------6-5-3-0----|
-1-0-00-00-00-0-0-0-0-6-5-3-0--1-0-00-00-00-0-0-0-0-6-5-3-0----|
     *  *  *  * * * *              *  *  *  * * * *  
L
--------------------------------------------------------------|
--------------------------------------------------------------|
----------------------P---------------------------------------|
--^-------------------H---^----^------------------------------|
-1-0--0--0--0----------)-3-0--1-0--0--0---1------------\------|
-1-0-00-00-00-0-0-0-0-6--3-0--1-0-00-00-0-1------------\------|
     *  *  *  * * * *             *  *  *        
R
---------------------------------------------------------------|
---------------------------------------------------------------|
---------------------------------------------------------------|
--^--------------------^---^----^------------------------------|
-1-0--0--0--0---------6-5-3-0--1-0--0--0---1-----------\-------|
-1-0-00-00-00-0-0-0-0-6-5-3-0--1-0-00-00-0-1-----------\-------|
     *  *  *  * * * *              *  *  *    


0:30

---------------------------------------------------------------|
---------------------------------------------------------------|
----------)----------------------------)-----------------------|
-7-7-7-5-7------5--7-8-8-8-8--7-7-7-5-7------5--7--------------|
-5-5-5-3-5--33--3--5-6-6-6-6--5-5-5-3-5--33--3--5--------------|
------------33---------------------------33--------0-0-0-0-----|

---------------------------------------------------------------|
---------------------------------------------------------------|
----------)----------------------------)-----------------------|
-7-7-7-5-7------5--7-8-8-8-8--7-7-7-5-7------5--7--------------|
-5-5-5-3-5--33--3--5-6-6-6-6--5-5-5-3-5--33--3--5--1-1-1-1-----|
------------33---------------------------33--------1-1-1-1-----|
                                                   
0:41
-----------------------------------------------------------------|
-----------------------------------------------------------------|
--------------5--------2---333---------------5--------2---333----|
---------0----3----3---0---111----------0----3----3---0---111----|
-0-0-0-0-0----3----3---0---111--0-0-0-0-0----3----3---0---111----|
-0-0-0-0-0-00-3--0-3-0-0-0-111--0-0-0-0-0-00-3--0-3-0-0-0-111----|
 * * * *   **    *   *   *      * * * *   **    *   *   *
-----------------------------------------------------------------|
-----------------------------------------------------------------|
--------------5--------2---333---------------5--------2---333----|
---------0----3----3---0---111----------0----3----3---0---111----|
-0-0-0-0-0----3----3---0---111--0-0-0-0-0----3----3---0---111----|
-0-0-0-0-0-00-3--0-3-0-0-0-111--0-0-0-0-0-00-3--0-3-0-0-0-111----|
 * * * *   **    *   *   *      * * * *   **    *   *   *

------------------------------------------------------------------------------|
------------------------------------------------------------------------------|
------------------------------------------------------------------------------|
------------------------------------------------------------------------------|
55--5--777-8-7--55--5--777-8-7-0--------------------------------3-------------|
55--5--777-8-7--55--5--777-8-7-0-00000000000000-6-5-3-0-3-0-3-5--6-5-0-3-0-3-5|
       ***             ***       **************   * * * * * * *  * * * * * * *

--------------------------------------------------------------------|
--------------------------------------------------------------------|
--------------------------------------------------------------------|
--------------------------------------------------------------------|
55--5--777-8-7--55--5--777-8-7-0--------------------6-6------3-4----|
55--5--777-8-7--55--5--777-8-7-0-00000000000000-000-6-6--000-3-4----|
       ***             ***       ************** ***      ***

------------------------------------------------------------------------------|
------------------------------------------------------------------------------|
------------------------------------------------------------------------------|
------------------------------------------------------------------------------|
55--5--777-8-7--55--5--777-8-7-0--------------------------------3-------------|
55--5--777-8-7--55--5--777-8-7-0-00000000000000-6-5-3-0-3-0-3-5--6-5-0-3-0-3-5|
       ***             ***       **************   * * * * * * *  * * * * * * *

--------------------------------|
--------------------------------|
--------------------------------|
--------------------------------|
55--5--777-8-7--55--5--777-8-7--|
55--5--777-8-7--55--5--777-8-7--|
       ***             ***       

L
--------------------------------------------------------------|
--------------------------------------------------------------|
----------------------P----------------------------P----------|
--^-------------------H---^----^-------------------H----^-----|
-1-0--0--0--0----------)-3-0--1-0--0--0--0----------)--3-0----|
-1-0-00-00-00-0-0-0-0-6--3-0--1-0-00-00-00-0-0-0-0-6---3-0----|
     *  *  *  * * * *             *  *  *  * * * *  
R
---------------------------------------------------------------|
---------------------------------------------------------------|
---------------------------------------------------------------|
--^--------------------^---^----^--------------------^---^-----|
-1-0--0--0--0---------6-5-3-0--1-0--0--0--0---------6-5-3-0----|
-1-0-00-00-00-0-0-0-0-6-5-3-0--1-0-00-00-00-0-0-0-0-6-5-3-0----|
     *  *  *  * * * *              *  *  *  * * * *  
L
--------------------------------------------------------------|
--------------------------------------------------------------|
----------------------P---------------------------------------|
--^-------------------H---^----^------------------------------|
-1-0--0--0--0----------)-3-0--1-0--0--0---1-------------------|
-1-0-00-00-00-0-0-0-0-6--3-0--1-0-00-00-0-1-------------------|
     *  *  *  * * * *             *  *  *        
R
---------------------------------------------------------------|
---------------------------------------------------------------|
---------------------------------------------------------------|
--^--------------------^---^----^------------------------------|
-1-0--0--0--0---------6-5-3-0--1-0--0--0---1-------------------|
-1-0-00-00-00-0-0-0-0-6-5-3-0--1-0-00-00-0-1-------------------|
     *  *  *  * * * *              *  *  *    

1:20
------------------------------------------------------------------------|
------------------------------------------------------------------------|
------------------------------------------------------------------------|
------------------------------------------------------------------------|
------------------------------------------------------------------------|
-00000000-0-0-0-0--00000000-0-0-0-0--00000000-0-0-0-0--00000000-0-0-0-0-|
 ******** * * * *  ******** * * * *  ******** * * * *  ******** * * * *
------------------------------------------------------------------------|
------------------------------------------------------------------------|
------------------------------------------------------------------------|
------------------------------------------------------------------------|
------------------------------------------------------------------------|
-00000000-0-0-0-0--00000000-0-0-0-0--00000000-0-0-0-0--00000000-0-0-0-0-|
 ******** * * * *  ******** * * * *  ******** * * * *  ******** * * * *


----------------------------------------------------|
----------------------------------------------------|
----------------------------------------------------|
----------------------------------------------------|
---^--------^--------^--------^--------^------------|
-13-12-12-15-12-12-13-12-12-13-12-12-13-12-10/12----|
        *        *        *        *          
----------------------------------------------------|
----------------------------------------------------|
----------------------------------------------------|
----------------------------------------------------|
---^--------^--------^--------^--------^------------|
-13-12-12-15-12-12-13-12-12-13-12-12-13-12-10/12----|
        *        *        *        *   
----------------------------------------------------|
----------------------------------------------------|
----------------------------------------------------|
----------------------------------------------------|
---^--------^--------^--------^--------^------------|
-13-12-12-15-12-12-13-12-12-13-12-12-13-12-10/12----|
        *        *        *        *          
----------------------------------------------------|
----------------------------------------------------|
----------------------------------------------------|
----------------------------------------------------|
---^--------^--------^--------^--------^------------|
-13-12-12-15-12-12-13-12-12-13-12-12-13-12-10/12----|
        *        *        *        *       
L higher harmony
----------------------------------------------------|
----------------------------------------------------|
----------------------------------------------------|
---^--------^--------^--------^--------^------------|
-13-12----15-12----13-12----13-12----13-12-10/12----|
-------12-------12-------12-------12----------------|
        *        *        *        *          
|||||||||||||||||||||||||||||||||||||||||||||||||||||||



1:52
---------------------------------------------------------------|
---------------6th---------------------------------------------|
--------------L IS PH'D-THEN BENT------------------------------|
--------------!-------------------------------!----------------|
-7---3--6--2--3------------------7---3--6--2--3----------------|
-7---3--6--2--3------------------7---3--6--2--3----------------|


---------------------------------------------------------------|
---------------------------------------------------------------|
---------------------------------------------------------------|
-------------------------------------------****************----|
-7---3--6--2--3------------------7---3--6--2222222211111111----|
-7---3--6--2--3------------------7---3--6--2222222211111111----|



---------------------------------------------------------------|
---------------------------------------------------------------|
----------)----------------------------)-----------------------|
-7-7-7-5-7------5--7-8-8-8-8--7-7-7-5-7------5--7--------------|
-5-5-5-3-5--33--3--5-6-6-6-6--5-5-5-3-5--33--3--5--------------|
------------33---------------------------33--------0-0-0-0-----|

---------------------------------------------------------------|
---------------------------------------------------------------|
----------)----------------------------)-----------------------|
-7-7-7-5-7------5--7-8-8-8-8--7-7-7-5-7------5--7--------------|
-5-5-5-3-5--33--3--5-6-6-6-6--5-5-5-3-5--33--3--5--1-1-1-1-----|
------------33---------------------------33--------1-1-1-1-----|
                                                   * * * *   
-----------------------------------------------------------------|
-----------------------------------------------------------------|
--------------5--------2---333---------------5--------2---333----|
---------0----3----3---0---111----------0----3----3---0---111----|
-0-0-0-0-0----3----3---0---111--0-0-0-0-0----3----3---0---111----|
-0-0-0-0-0-00-3--0-3-0-0-0-111--0-0-0-0-0-00-3--0-3-0-0-0-111----|
 * * * *   **    *   *   *      * * * *   **    *   *   *
----------------------------------------------------------------|
----------------------------------------------------------------|
--------------5--------2---333---------------5--------2---33----|
---------0----3----3---0---111----------0----3----3---0---11----|
-0-0-0-0-0----3----3---0---111--0-0-0-0-0----3----3---0---11----|
-0-0-0-0-0-00-3--0-3-0-0-0-111--0-0-0-0-0-00-3--0-3-0-0-0-11----|
 * * * *   **    *   *   *      * * * *   **    *   *   *  

Добавлено: 03.12.2013
Другие материалы по этой песне:
  • Аккорды и текст

Страница создана 03.12.2013
http://primanota.ru/lamb-of-god/cheated-chords.htm
Привет, Гость.
Предлагаем пройти революционный курс по гитаре.
Подарок от PrimaNota.Ru, забирай!