PrimaNota.ru - самый крупный в мире бесплатный архив песенных текстов, аккордов, табулатур и нот


Lamb Of God - Broken Hands - текст песни, таба, бас-таба, видео

Регистрация Запомнить меня
Войти через:  Facebook Google Twitter Vk Yandex Mail.ru

Lamb Of God - Broken Hands - текст песни, таба, бас-таба, видео

Печатать
Просмотров: 334
Tuning: Drop D

BET OF ALL YOU HAD TO LOSE!

INTRO RIFF
e|----------------------------------------------------------------|
B|-----------9---------------------9------------------------------|
G|----------------------------------------------------------------|
D|-9-12-11-9---12-11-9--11-12-11-9--12-11-12----------------------|
A|----------------------------------------------------------------|
D|----------------------------------------------------------------|
                  REPEAT
RIFF 2
e|-------------------------------------------------------------|
B|-------------------------------------------------------------|
G|-------------------------------------------------------------|
D|-------------------------------------3--5--------------------|
A|-----------5-------5/6/5-----5/6/5---3--5--------------------|
D|--0-000--0---0-0-0-5/6/5--00—5/6/5---3--5--------------------|

BACK TO INTRO RIFF AGAIN


THEN RIFF 2

e|---------------------------------------------------|
B|---------------------------------------------------|
G|---------------------------------------------------|
D|-000--00--0----------------------------------------|
A|-000--00--0----------------------------------------|
D|-000--00--0----------------------------------------|
   |-------------------------------------------------|
      PM

e|---------------------------------------------------------------------------|
B|---------------------------------------------------------------------------|
G|---------------------------------------------------------------------------|
D|---------------------------------------------------------------------------|
A|-000-00-000-0--1-x-3-x-4-x-3-x--0-000--00--000—-0-000-00-000-000-000-000---|
D|-000-00-000-0--1-x-3-x-4-x-3-x--0-000--00--000—-0-000-00-000-000-000-000---|

e|---------------------------------------------------------------------------|
B|---------------------------------------------------------------------------|
G|---------------------------------------------------------------------------|
D|---------------------------------------------------------------------------|
A|-000-00-000-0--1-x-3-x-4-x-3-x--0-000--00--000—-0-000-00-000-000-000-000---|
D|-000-00-000-0--1-x-3-x-4-x-3-x--0-000--00--000—-0-000-00-000-000-000-000---|


e|-------------------------------------------------------|
B|-------------------------------------------------------|
G|-------------------------------------------------------|
D|-------------------------------------------------------|
A|-------------------------------------------------------|
D|--1111111111111111111111111111111--1~------------------|

e|--------------------------------------------------------|
B|--------------------------------------------------------|
G|--------------------------------------------------------|
D|--------------------------------------------------------|
A|--------------------------------------------------------|
D|--111-1~--11-1~--111—1~--11-1~--111-21-4----------------|

e|----------------------------------------------------------------------|
B|----------------------------------------------------------------------|
G|----------------------------------------------------------------------|
D|----------------------------------------------------------------------|
A|----------------------------------------------------------------------|
D|--111-1~--11-2~--111—1~--11-1~--00------------------------------------|

e|------------------------------------------------|
B|-----------9---------------------9--------------|
G|------------------------------------------------|
D|-9-12-11-9---12-11-9--11-12-11-9--12-11-12------|
A|------------------------------------------------|
D|------------------------------------------------|

REPEAT


RIFF 2
e|----------------------------------------------|
B|----------------------------------------------|
G|----------------------------------------------|
D|-------------------------------------3--5-----|
A|-----------5-------5/6/5-----5/6/5---3--5-----|
D|--0-000--0---0-0-0-5/6/5--00—5/6/5---3--5-----|

e|------------------------------------------------|
B|-----------9---------------------9--------------|
G|------------------------------------------------|
D|-9-12-11-9---12-11-9--11-12-11-9--12-11-12------|
A|------------------------------------------------|
D|------------------------------------------------|

E|-----------------------------------------------|
B|-----------------------------------------------|
G|-----------------------------------------------|
D|-000--00--0------------------------------------|
A|-000--00--0------------------------------------|
D|-000--00--0------------------------------------|
   |---------------------------------------------|
      PM

VERSE 2

e|--------------------------------------------------------------------------|
B|--------------------------------------------------------------------------|
G|--------------------------------------------------------------------------|
D|--------------------------------------------------------------------------|
A|-000-00-000-0--1-x-3-x-4-x-3-x--0-000--00--000—-0-000-00-000-000-000-000--|
D|-000-00-000-0--1-x-3-x-4-x-3-x--0-000--00--000—-0-000-00-000-000-000-000--|

e|--------------------------------------------------------------------------|
B|--------------------------------------------------------------------------|
G|--------------------------------------------------------------------------|
D|--------------------------------------------------------------------------|
A|-000-00-000-0--1-x-3-x-4-x-3-x--0-000--00--000—-0-000-00-000-000-000-000--|
D|-000-00-000-0--1-x-3-x-4-x-3-x--0-000--00--000—-0-000-00-000-000-000-000--|

e|-------------------------------------------------------|
B|-------------------------------------------------------|
G|-------------------------------------------------------|
D|-------------------------------------------------------|
A|-------------------------------------------------------|
D|--1111111111111111111111111111111--1~------------------|

X2
e|-------------------------------------------------------|
B|-------------------------------------------------------|
G|-------------------------------------------------------|
D|-------------------------------------------------------|
A|-------------------------------------------------------|
D|--111-1~--11-1~--111—1~--11-1~--111-21-4---------------|

e|-----------------------------------------------------------------------------|
B|-----------------------------------------------------------------------------|
G|-----------------------------------------------------------------------------|
D|-----------------------------------------------------------------------------|
A|-----------------------------------------------------------------------------|
D|--111-1~--11-2~--111—1~--11-1~--00-------------------------------------------|


BACK TO INTRO RIFF

THEN

e|-------------------------------------------------------------------------|
B|-------------------------------------------------------------------------|
G|-------------------------------------------------------------------------|
D|-------------------------------------3--5--------------------------------|
A|-----------5-------5/6/5-----5/6/5---3--5--000--00-----------------------|
D|--0-000--0---0-0-0-5/6/5--00—5/6/5---3--5--000--00-----------------------|


SOLO
e|----4~----6~----7~------9~--9~--9~---------------------|
B|----7b9~—-9b11~-10b12~--12~-12~-12---------------------|
G|-------------------------------------------------------|
D|-------------------------------------------------------|
A|-------------------------------------------------------|
D|-------------------------------------------------------|

e|----12-9----9--12-9-11-9-----9-12-9-11-9---9-12-9---9-12-9----15b18~~~----| Big vibrato
B|---------12---------------12-------------12------12--------12-------------|
G|--------------------------------------------------------------------------|
D|--------------------------------------------------------------------------|
A|--------------------------------------------------------------------------|
D|--------------------------------------------------------------------------|

BREAKDOWN
e|-------------------------------------------------------|
B|-------------------------------------------------------|
G|-------------------------------------------------------|
D|-------------------------------------------------------|
A|-000000000-00000000-00000000---------------------------|
D|-000000000-00000000-00000000---------------------------|

REPEAT AS MANY TIMES NEEDED.

RIFF AFTER BREAKDOWN
e|-----------------------------------------------------|
B|-----------------------------------------------------|
G|-----------------------------------------------------|
D|-333-000-666-000000------11--------------------------| X2
A|-333-000-666-000000-0000-11--------------------------|
D|-333-000-666-000000-0000-11--------------------------|

e|----------------------------------------------------|
B|----------------------------------------------------|
G|----------------------------------------------------|
D|----------------------------------------------------|
A|----------------------------------------------------|
D| 3333333300000000666666660000000000000000011111111--|

e|--------------------------------------------------------------------------------|
B|--------------------------------------------------------------------------------|
G|--------------------------------------------------------------------------------|
D|--------------------------------------------------------------------------------|
A|--------------------------------------------------------------------------------|
D| 333333330000000066666666000000000---1-1----------------------------------------|


BACK TO INTRO RIFF


THEN
e|-------------------------------------------------------------|
B|-------------------------------------------------------------|
G|-------------------------------------------------------------|
D|-------------------------------------3--5--------------------|
A|-----------5-------5/6/5-----5/6/5---3--5--------------------|
D|--0-000--0---0-0-0-5/6/5--00—5/6/5---3--5--------------------|


e|-------------------------------------------------------------------------|
B|-------------------------------------------------------------------------|
G|-------------------------------------------------------------------------|
D|-------------------------------------------------------------------------|
A|-000-00-000-0--1-x-3-x-4-x-3-x--0-000--00--000—-0-000-00-000-000-000-000-|
D|-000-00-000-0--1-x-3-x-4-x-3-x--0-000--00--000—-0-000-00-000-000-000-000-|

e|-------------------------------------------------------------------|
B|-------------------------------------------------------------------|
G|-------------------------------------------------------------------|
D|-------------------------------------------------------------------|
A|-000-00-000-0--1-x-3-x-4-x-3-x--0-000--00--000—-0-000-00-000-000-0-|
D|-000-00-000-0--1-x-3-x-4-x-3-x--0-000--00--000—-0-000-00-000-000-0-|

HELL YEAH!  You made it! :D

Tabbed by:   Jeremy Chan
Добавлено: 11.07.2012
Другие материалы по этой песне:

Страница создана 01.03.2012
http://primanota.ru/lamb-of-god/broken-hands-chords.htm
Привет, Гость.
Предлагаем пройти революционный курс по гитаре.
Подарок от PrimaNota.Ru, забирай!