PrimaNota.ru - самый крупный в мире бесплатный архив песенных текстов, аккордов, табулатур и нот


Lamb Of God - Blacken The Cursed Sun - текст песни, таба, бас-таба, видео

Регистрация Запомнить меня
Войти через:  Facebook Google Twitter Vk Yandex Mail.ru

Lamb Of God - Blacken The Cursed Sun - текст песни, таба, бас-таба, видео

Печатать
Просмотров: 282
Blacken The Cursed Sun
LAMB OF GOD
Writen by Cah
Drop D DADGBE

The number for the notes on the intro MAY be alittle off but the notes are deffinetly right.

Guitar One 0:00 - 0:50
[--------------------------------------------------------------------|
[--------------------------------------------------------------------|
[--------------------------------------------------------------------|
[--------------------------------------------------------------------|
[--4/5-5-5-5-5-5-5-5-5-5-5-5/8-8-8-8-8-8-8-8-8-8-8-8\7-7-7-7-7-7-7-7-|
[--------------------------------------------------------------------|

--------------------------------------]
--------------------------------------]
--------------------------------------]
--------------------------------------]
-7-7/1-1-1-1-1-1-1-1-1/4-4-4-4-4-4-4-4]
--------------------------------------]

[--------------------------------------------------------------------|
[--------------------------------------------------------------------|
[--------------------------------------------------------------------|
[--------------------------------------------------------------------|
[--4/5-5-5-5-5-5-5-5-5-5-5-5/8-8-8-8-8-8-8-8-8-8-8-8\7-7-7-7-7-7-7-7-|
[--------------------------------------------------------------------|


--------------------------------------]
--------------------------------------]
--------------------------------------]
--------------------------------------]
-7-7/3-3-3-3-3-3-3-3-3/6-6-6-6-6-6-6-6]
--------------------------------------]


[--------------------------------------------------------------------|
[--------------------------------------------------------------------|
[--------------------------------------------------------------------|
[--------------------------------------------------------------------|
[--4/5-5-5-5-5-5-5-5-5-5-5-5/8-8-8-8-8-8-8-8-8-8-8-8\7-7-7-7-7-7-7-7-|
[--------------------------------------------------------------------|

--------------------------------------]
--------------------------------------]
--------------------------------------]
--------------------------------------]
-7-7/1-1-1-1-1-1-1-1-1/4-4-4-4-4-4-4-4]
--------------------------------------]

[--------------------------------------------------------------------|
[--------------------------------------------------------------------|
[--------------------------------------------------------------------|
[--------------------------------------------------------------------|
[--4/5-5-5-5-5-5-5-5-5-5-5-5/8-8-8-8-8-8-8-8-8-8-8-8\7-7-7-7-7-7-7-7-|
[--------------------------------------------------------------------|

--------------------------------------]
--------------------------------------]
--------------------------------------]
--------------------------------------]
-7-7---8-7-5-7-5-4-5-4-1-4-0-1--------] Repeat All 2x


Guitar 2 0:12 - 0:23 Harmony
[---------------------------------------------------------------------|
[---------------------------------------------------------------------|
[---------------------------------------------------------------------|
[-5\3-3-3-3-3-3-3-3-3-3-3-3-3/7-7-7-7-7-7-7-7-7-7-7-7-7\6-6-6-6-6-6-6-|
[---------------------------------------------------------------------|
[---------------------------------------------------------------------|

------------------------------------------]
------------------------------------------]
------------------------------------------]
-6-6-6-6-6-6\-1-1-1-1-1-1-1/5-5-5-5-5-----]
------------------------------------------]
------------------------------------------]

[---------------------------------------------------------------------|
[---------------------------------------------------------------------|
[---------------------------------------------------------------------|
[-5\3-3-3-3-3-3-3-3-3-3-3-3-3/7-7-7-7-7-7-7-7-7-7-7-7-7\6-6-6-6-6-6-6-|
[---------------------------------------------------------------------|
[---------------------------------------------------------------------|

---------------------------------------]
---------------------------------------]
---------------------------------------]
-6-6-6-6-6-6---------------------------]
---------------------------------------]
-------------8-7-5-7-5-4-5-4-1-4-0-1---]


Guitar 3 0:37 - 0:46 Harmony
[--------------------------------------------------------------------------|
[--------------------------------------------------------------------------|
[--------------------------------------------------------------------------|
[-7-7-7-7-7-7-7-7-7-7-7-7/12-12-12-12-12-12-12-12-12\11-11-11-11-11-11-11--|
[--------------------------------------------------------------------------|
[--------------------------------------------------------------------------|

----------------------------------------------------------------------------|
----------------------------------------------------------------------------|
----------------------------------------------------------------------------|
-11-11-11\5-5-5-5-5-5-5-5-5/8-8-8-8-8-8-8-8-8-8-8-8\7-7-7-7-7-7-7-7-7-7-7---|
----------------------------------------------------------------------------|
----------------------------------------------------------------------------|

-----------------------------------------------------------------------------|
-----------------------------------------------------------------------------|
-----------------------------------------------------------------------------|
-12-12-12-12-12-12-12-12\11-11-11-11-11-11-11-11-11--------------------------|
-----------------------------------------------------------------------------|
----------------------------------------------------8-7-5-7-5-4-5-4-1-4-0-1--|
Добавлено: 16.04.2012
Другие материалы по этой песне:

Страница создана 24.02.2012
http://primanota.ru/lamb-of-god/blacken-the-cursed-sun-chords.htm
Привет, Гость.
Предлагаем пройти революционный курс по гитаре.
Подарок от PrimaNota.Ru, забирай!