PrimaNota.ru - самый крупный в мире бесплатный архив песенных текстов, аккордов, табулатур и нот


Lamb Of God - Ashes Of The Wake (album) - таба, видео

Регистрация Запомнить меня
Войти через:  Facebook Google Twitter Vk Yandex Mail.ru

Lamb Of God - Ashes Of The Wake (album) - таба, видео

Печатать
Просмотров: 185
Lamb Of God - Ashes Of The Wake
------------
Laid To Rest
------------
Intro Guitar 1 (0:01)
|---------------------------|
|---------------------------|
|---------------------------|
|--------------------0--10/-|
|--------------------0--10/-|
|--------------------0--10/-|
                   
|-------------------------------------------------------|
|-------------------------------------------------------|
|-------------------------------------------------------|
|----------------------3--------------------------------|
|--------6-5-3-----------5-6----------------------------|
|-0-0-0---------0-0-0---------0-0-0--8-5-4/7-8-7-10-7-8-|
PM-----         -----         -----

|-------------------------------------------------------|
|-------------------------------------------------------|
|-------------------------------------------------------|
|-------4h5p4----------8-7-5--4h5p4---4-----------------|
|-------------6---------------------6---5-6-3-5---3-----|
|-0-0-0----------0-0-0--------------------------6---5-6-|
PM-----          ----- 

Intro Guitar 2 (timing on the above)
|-------------------------------------------------------|
|-------------------------------------------------------|
|-------------------------------------------------------|
|-0-----------------------------------------------------|
|-0-----------------------------------------------------|
|-0-----------------------------------------------------|
 
|-------------------------------------------------------|
|-------------------------------------------------------|
|-------------------------------------------------------|
|-0---------------------------4h5p4---4-----------------|
|-0---------------------------------6---5-6-3-5---3-----|
|-0---------------------------------------------6---5-6-|
PM                                  -------------

Guitars 1 and 2 x3 (0:08)
|-------------------------------------------------------|
|-------------------------------------------------------|
|-------------------------------------------------------|
|-------------------------------------------------------|
|-2-2-2-2------2-2-2-2--------2-2--2--------------------|
|-2-2-2-2-3b*--2-2-2-2-3b*----2-2--2-2-3-2-5-4-3--------|
PM-------      -------        ------

4th time
|-------------------------------------------------------|
|-------------------------------------------------------|
|-------------------------------------------------------|
|-------------------------------------------------------|
|-2-2-2-2------2-2-2-2--------2-2--2--------------------|
|-2-2-2-2-3b*--2-2-2-2-3b*----2-2--2-2-3-2-3-2-1--------|
PM-------      -------        ------

1st Verse Guitar 1 (0:22)
|--------------------------------------|
|-------------------13-------11--------| 8x
|-15p14----12h14-------15-------14-----|
|-------12-------12-------12-------12--|
|--------------------------------------|
|--------------------------------------|

Guitar 2 
|-------------------------------------------------------|
|-------------------------------------------------------|
|-------------------------------------------------------| 4x
|-------------------------------------------------------|
|-0-0-0-0-0---0-0-0-0-0---0-0--0--0-0-0-0---------------|
|-0-0-0-0-0---0-0-0-0-0---0-0--0--0-0-0-0---------------|
PM---------------------------------------

Guitar 1 and 2 (0:35, 1:24)
|-------------------------------------------------------|
|-------------------------------------------------------|
|-------------------------------------------------------|
|-------------------------------------------------------|
|-2-2-2-2------2-2-2-2--------2-2--2--------------------|
|-2-2-2-2-3b*--2-2-2-2-3b*----2-2--2-2-3-2-5-4-3--------|
PM-------      -------        ------

|-------------------------------------------------------|
|-------------------------------------------------------|
|-------------------------------------------------------|
|-------------------------------------------------------|
|-2-2-2-2------2-2-2-2--------2-2--2--------------------|
|-2-2-2-2-3b*--2-2-2-2-3b*----2-2--2-2-3-2-3-2-1--------|
PM-------      -------        ------

2nd and 3rd Verse Guitars 1 and 2 (0:42, 1:31)
|-------------------------------------------------------|
|-------------------------------------------------------|
|-------------------------------------------------------|
|----------------------3--------------------------------|
|--------6-5-3-----------5-6----------------------------|
|-0-0-0---------0-0-0---------0-0-0--8-5-4/7-8-7-10-7-8-|
PM-----         -----         -----
|-------------------------------------------------------|
|-------------------------------------------------------|
|-------------------------------------------------------|
|-------4h5p4----------8-7-5--4h5p4---4-----------------|
|-------------6---------------------6---5-6-3-5---3-----|
|-0-0-0----------0-0-0--------------------------6---5-6-|
PM-----          -----

Guitar 1 plays the top riffs once and plays this riff
|-------------------------------------------------------|
|-------------------------------------------------------|
|-/7----------------5----12---11------------5----3------|
|--x----------------x-----x----x------------x----x----7-|
|-/5----------------3----10----9------------3----1----x-|
|-----------------------------------------------------7-|

|-------------------------------------------------------|
|-------------------------------------------------------|
|-------------------------------------------------------|
|-5----5/8----7-----------------------------3----1------|
|-x----x-x----x-----------------------------x----x------|
|-5----5/8----7-----------------------------3----1------|

Chorus Guitars 1 and 2 (1:10, 1:58, 2:48)
|-------------------------------------------------------|
|-------------------------------------------------------|
|-------------------------------------------------------| 2x
|-------------------------------------------------------|
|-------------------------------------------------------|
|-0--0-6-3-5-0--0-1-3-1-0--0-6-3-5-----0-1-3-5*-3-------|
PM                                     ----- 
                                       * - slight p.h.

|-------------------------------------------------------|
|-------------------------------------------------------|
|-------------------------------------------------------| 2x
|-------------------------------------------------------|
|-------------------------------------------------------|
|-000-6-3-5-000-1-3-1-000-6-3-5--------0-1-3-5*-3-------|
PM---       ---       ---              -----
                                       * - slight p.h.

Guitar 1 (2:12)
|-------------------------------------------------------|
|-------------------------------------------------------|
|-------------------------------------------------------|
|-------------------------------------------------------|
|-------------------------------------------------------|
|-1-1-1-1-1---1-1-1-1-1---1-1--1--1-1-1-1---------------|
PM---------------------------------------

|-------------------------------------------------------|
|-------------------------------------------------------|
|-------------------------------------------------------|
|-------------------------------------------------------|
|-------------------------------------------------------|
|-1-1-1-1-1---1-1-1-1-1---1-1--1--1-1-------------------|
PM-----------------------------------

Guitars 1 and 2 (2:20)
|-------------------------------------------------------|
|-------------------------------------------------------|
|-------------------------------------------------------| 
|-------------------------------------------------------|
|-0-0-0-0-0---0-0-0-0-0---0-0--0--0-0-0-0---------------|
|-0-0-0-0-0---0-0-0-0-0---0-0--0--0-0-0-0---------------|
PM---------------------------------------

Guitar 2 (2:34)
|-------------------------------------------------------|
|-------------------------------------------------------|
|-------------------------------------------------------| 3x
|----------------------3--------------------------------|
|--------6-5-3-----------5-6----------------------------|
|-0-0-0---------0-0-0---------0-0-0--8-5-4/7-8-7-10-7-8-|
PM-----         -----         -----

|-------------------------------------------------------|
|-------------------------------------------------------|
|-------------------------------------------------------|
|---------------------3-------4h5p4---4-----------------|
|--------6-5-3----------5-6---------6---5-6-3-5---3-----|
|-0-0-0---------0-0-0---------------------------6---5-6-|
PM-----         -----

Guitar 1
|-------------------------------------------------------|
|-------------------------------------------------------|
|-------------------------------------------------------| 3x
|-------------------------------------------------------|
|-------------------------------------------------------|
|-0-0-0-0-0---0-0-0-0-0---0-0--0--0-0-0-0---------------|
PM---------------------------------------

|-------------------------------------------------------|
|-------------------------------------------------------|
|-------------------------------------------------------|
|-------------------------------------------------------|
|---------------------------------------------/16\\----|
|-0-0-0-0-0---0-0-0-0-0---0-------------------/16\\----|
PM-------------------------

Pre Verse (3:02)
Guitar 1----       Guitar 2--
|-------------------------------------------------------|
|-------------------------------------------------------|
|-------------------------------------------------------|
|-------------------------------------------------------|
|-------------------------------------------------------|
|-0-1-3-5*-3-------0-4-7-7b-4---------------------------|
PM-----            -

Verse 4 Guitars 1 and 2 (3:04)
|-------------------------------------------------------|
|-------------------------------------------------------|
|-------------------------------------------------------|
|-------------------------1-------1---1-------1---------|
|-5-------5---5-------5---------------------------------|
|---5-0-5---5---5-0-5---5---5-1-5---5---5-1-5---5-------|
PM  -----   -   -----   -   -----   -   -----   -

|-------------------------------------------------------|
|-------------------------------------------------------|
|-------------------------------------------------------|
|-------------------------------------------------------|
|----------------------------0-------0---0-------0------|
|-8-7-5-7-8-7-8-7-5-7-8-7-0----5-1-5---1---5-1-5---1----|
PM-------------------------    -----   -   -----   -

Outro (3:33) Guitar 2
|--------------------------------------|
|-------------------13-------11--------| 7x
|-15p14----12h14-------15-------14-----|
|-------12-------12-------12-------12--|
|--------------------------------------|
|--------------------------------------|

Guitar 1
|-------------------------------------------------------|
|-------------------------------------------------------|
|-------------------------------------------------------| 4x
|-------------------------------------------------------|
|-0-0-0-0-0---0-0-0-0-0---0-0--0--0-0-0-0---------------|
|-0-0-0-0-0---0-0-0-0-0---0-0--0--0-0-0-0---------------|
PM---------------------------------------
---------
Hourglass
---------
 Intro
|--------------------------------------|
|--------------------------------------|
|--------------------------------------|
|--------------------------------------|
|-----------7h8------8h10--------------|
|-00-0-00-0-----00-0------00-0-3-7-6-2-|
  ** * ** *     ** *      ** *

|----------------------------------------|
|-----------------------------------10p9-|
|------------------------------10p9------|
|----------------------------------------|
|-----------7h8------8h12----------------|
|-00-0-00-0-----00-0------00-0-----------|
  ** * ** *     ** *      ** *
|--------------------------------------|
|--------------------------------------|
|--------------------------------------|
|--------------------------------------|
|-----------7h8------8h10--------------|
|-00-0-00-0-----00-0------00-0-3-7-6-2-|
  ** * ** *     ** *      ** *
|---------------------------------------|
|---------------------------------------|
|---------------------------------------|
|---------------------------------4h5p4-|   (x2)
|-----------6p5------5p4----------------|
|-00-0-00-0-----00-0-----7-5-00-0-------|
  ** * ** *     ** *         ** *
--------------------------------------------------------------------

|-------------|-----------------------------------|
|-------------|-----------------------------------|
|-------------|-----------------------------------|
|-------Pause-|-----------------4h5p4-------8-7-6-|
|-------------|-------6p5-------------------------|
|-0-0-0-------|-0-0-0-----0-7-5-------0-0-0-------|
  * * *         * * *     *           * * *
|-------------------------------|----------------------------------|
|-------------------------------|----------------------------------|
|-------------------------------|----------------------------------|
|-------------------------------|----------------------------------|
|-------6p5-----5p4-------------|-------6p5------------------------|
|-0-0-0-----0-0-----0-0-0-0-0-0-|-0-0-0-----0-5-0-4br--0-0-0-8-5-4-|
  * * *     * *     * * * * * *   * * *     *   *      * * *
|-------------------------------------------------------------|
|-------------------------------------------------------------|
|-------------------------------------------------------------|
|-------------------------------------------4h5p4-------8-7-6-|
|-------6h5-----5h4---------------6h5-------------------------|
|-0-0-0-----0-0-----0-0-0-0-0-0-0-----0-7-5-------0-0-0-------|
  * * *     * *     * * * * * * *     *           * * *
|------------------------------------------------------------------|
|------------------------------------------------------------------|
|------------------------------------------------------------------|
|------------------------------------------------------------------|
|-------6h5-----5h4--------------6h5-------------------------------|
|-0-0-0-----0-0-----0-0-0-0-0-0-----0-5-0-4br--0-0-0-8-5-4-0-1-3-1-|
  * * *     * *     * * * * * *     *   *      * * *       *
-----------------------------------------------------------------------

 Riff
|----------------------------------------|
|----------------------------------------|
|----------------------------------------|
|-----------------------------------10p8-|
|------13--10h12------13--10h12----------|
|-00-0---0-------00-0---0-------88-8-----|
  ** *   *       ** *   *       ** *
|--------------------------------------------|
|--------------------------------------------|
|--------------------------------------------|
|--------------------------------------------|
|------13--10h12---------13-12---------------|
|-00-0---0-------00-0-10-------10-9h10p9-6-5-|
  ** *   *       ** *  * *
|----------------------------------------|
|----------------------------------------|
|----------------------------------------|
|-----------------------------------10p8-|
|------13--10h12------13--10h12----------|
|-00-0---0-------00-0---0-------88-8-----|
  ** *   *       ** *   *       ** *
|------------------------------------------|
|------------------------------------------|
|------------------------------------------|
|------------------------------------------|
|-----13--10h12---------13-12-10-7h8p7-5-4-|
|-00-0--0-------00-0-12--------------------|
  ** *  *       ** *  * *
|----------------------------------------|
|----------------------------------------|
|----------------------------------------|
|-----------------------------------10p8-|
|------13--10h12------13--10h12----------|
|-00-0---0-------00-0---0-------88-8-----|
  ** *   *       ** *   *       ** *
|--------------------------------------------|
|--------------------------------------------|
|--------------------------------------------|
|--------------------------------------------|
|------13--10h12---------13-12---------------|
|-00-0---0-------00-0-10-------10-9h10p9-6-5-|
  ** *   *       ** *  * *
|----------------------------------------|
|----------------------------------------|
|----------------------------------------|
|-----------------------------------10p8-|
|------13--10h12------13--10h12----------|
|-00-0---0-------00-0---0-------88-8-----|
  ** *   *       ** *   *       ** *
|------------------------------------------|
|------------------------------------------|
|------------------------------------------|
|--------------------------------------5/8-|
|-----13--10h12---------13-12-10-7h8p7-3/6-|
|-00-0--0-------00-0-12--------------------|
  ** *  *       ** *  * *

-------------------------------------------------------------------

|-------------------------------------------------------------|
|-------------------------------------------------------------|
|-------------------------------------------------------------|
|-----8---5/7---8---5/7---------------8---5/7-10-10--10-10----|
|-----6---3/5---6---3/5---------------6---3/5--8--8---6--6--0-|
|-0-0---0-----0---0-----0-0-0-0-0-0-0---0-----------0-------0-|
  * *   *     *   *     * * * * * * *   *           *

|------------------------------------------------------------|
|------------------------------------------------------------|
|------------------------------------------------------------|
|-----8---5/7---8---5/7---------------8---5/7----------------| (x2)
|-----6---3/5---6---3/5---------------6---3/5--3-3---1-1--0--|
|-0-0---0-----0---0-----0-0-0-0-0-0-0---0------3-3-0-1-1--0--|
  * *   *     *   *     * * * * * * *   *          *
--------------------------------------------------------------------


|---------------------------------------------------------|
|---------------------------------------------------------|
|---------------------------------------------------------|
|-----7-------------7-------------------------------------|
|-5-6-----------5-6-----------5-6-4---------5-6-3---------|
|-------0-0-0-0-------0-0-0-0-------0-0-0-0-------0-0-0-0-|
        * * * *       * * * *       * * * *       * * * *

|--------------------------------------------------------------|
|--------------------------------------------------------------|
|--------------------------------------------------------------|
|-----7-------------7------------------------------------------|
|-5-6-----------5-6-----------5-6-4---------5-6-3--------------|
|-------0-0-0-0-------0-0-0-0-------0-0-0-0--------6-5-3-5-3-1-|
        * * * *       * * * *       * * * *        ^  Fast  ^

|---------------------------------------------------------|
|---------------------------------------------------------|
|---------------------------------------------------------|
|-----7-------------7-------------------------------------|
|-5-6-----------5-6-----------5-6-4---------5-6-3---------|
|-------0-0-0-0-------0-0-0-0-------0-0-0-0-------0-0-0-0-|
        * * * *       * * * *       * * * *       * * * *
|--------------------------------------------------|
|--------------------------------------------------|
|--------------------------------------------------|
|-----7-------------7------------------------------|
|-5-6-----------5-6-----------5-6-4---------5-6-3--|
|-------0-0-0-0-------0-0-0-0-------0-0-0-0--------|
        * * * *       * * * *       * * * *
-------------------------------------------------------------------------

|----------------------------------------------------------|
|----------------------------------------------------------|
|-------9---------------9----------------------------------|
|---7-8-7-----------7-8-7-----------7-8-6-----------7-8-5--|
|---5-6-------------5-6-------------5-6-4-----------5-6-3--|
|-0-------0-0-0-0-0-------0-0-0-0-0-------0-0-0-0-0--------|
  *       * * * * *       * * * * *       * * * * *
|---------------------------------------------------------------------|
|---------------------------------------------------------------------|
|-------9---------------9---------------------------------------------|
|---7-8-7-----------7-8-7-----------7-8-6-----------7-8-5-------------|
|---5-6-------------5-6-------------5-6-4-----------5-6-3-------------|
|-0-------0-0-0-0-0-------0-0-0-0-0-------0-0-0-0-0-------6-5-3-5-3-1-|
  *       * * * * *       * * * * *       * * * * *
|----------------------------------------------------------|
|----------------------------------------------------------|
|-------9---------------9----------------------------------|
|---7-8-7-----------7-8-7-----------7-8-6-----------7-8-5--|
|---5-6-------------5-6-------------5-6-4-----------5-6-3--|
|-0-------0-0-0-0-0-------0-0-0-0-0-------0-0-0-0-0--------|
  *       * * * * *       * * * * *       * * * * *
|-----------------------------------------------------------|
|-----------------------------------------------------------|
|-------9---------------9-----------------------------------|
|---7-8-7-----------7-8-7-----------7-8-6-----------7-8-5---|
|---5-6-------------5-6-------------5-6-4-----------5-6-3---|
|-0-------0-0-0-0-0-------0-0-0-0-0-------0-0-0-0-0---------|
  *       * * * * *       * * * * *       * * * * *
Continued From top...
|-------------------------|
|-------------------------|
|-------------------------|
|-------------------------|
|-------------6-5-4-8-6-5-|
|-6-5-4-5-4-3-------------|

The Amazing Riff (Believe me this is how you play it, I have killadelphia, Will Adler 
you how to play it, This is it, or really close to it)

|------------------|-----------------|-----------------|-----------------|
|------------------|-----------------|-----------------|-----------------|
|------------------|-----------------|-----------------|-----------------|
|------------------|---------11------|-----------------|-----------------|
|---------12-------|-----------12-13-|---------12------|--------13-12-11-|
|-0-12-13----13-12-|-0-12-13---------|-0-12-13---13-12-|-0-13-10---------|
  *  *  *     *  *   *  *  *           *  *  *    *  *   *  *  *
|------------------|-----------------|-----------------|-------------|
|------------------|-----------------|-----------------|-------------|
|------------------|-----------------|-----------------|-------------|
|------------------|---------11------|-----------------|-------------|
|---------12-------|-----------12-13-|---------12------|-------------|
|-0-12-13----13-12-|-0-12-13---------|-0-12-13---13-12-|-5-8-4-7-6-3-| (x4)
  *  *  *     *  *   *  *  *           *  *  *    *  *   * * * * * *
---------------------------------------------------------------------------

|-----------------|------------------|-----------------|
|-----------------|------------------|-----------------|
|-----------------|------------------|-----------------|
|-----------------|------------------|-----------------|
|-0---------------|--1---------------|--3--------------|
|-0--5-8-4-7-6-3--|--1--5-8-4-7-6-3--|--3--5-8-4-7-6-3-|
     * * * * * *        * * * * * *        * * * * * *
|-----------------------|
|-----------------------|
|-----------------------|
|-----------------------|(x4)
|-5h6p5-8-6-------------|
|-----------5-8-4-7-6-3-|
            * * * * * *
-------------------------------------------------------------------------
 BreakDown
|-------------------------------|
|-------------------------------|
|-------------------------------|
|-------------------------------| (x4)
|-------------------------------|
|-0-0-0-0-0-0-0-0-0-0-0-0-0-0-0-|
  * * * * * * * * * * * * * * *
-------------------------------------------------------------------------

|-------|
|-------|
|-------|
|-------|
|-------|
|-0-12/-|
  *
 Continued From top Slide
|------------------|-----------------|-----------------|-----------------|
|------------------|-----------------|-----------------|-----------------|
|------------------|-----------------|-----------------|-----------------|
|------------------|---------11------|-----------------|-----------------|
|---------12-------|-----------12-13-|---------12------|--------13-12-11-|
|-0-12-13----13-12-|-0-12-13---------|-0-12-13---13-12-|-0-13-10---------|
  *  *  *     *  *   *  *  *           *  *  *    *  *   *  *  *
|------------------|-----------------|-----------------|-------------|
|------------------|-----------------|-----------------|-------------|
|------------------|-----------------|-----------------|-------------|
|------------------|---------11------|-----------------|-------------| (x6)
|---------12-------|-----------12-13-|---------12------|-------------|
|-0-12-13----13-12-|-0-12-13---------|-0-12-13---13-12-|-5-8-4-7-6-3-|
  *  *  *     *  *   *  *  *           *  *  *    *  *   * * * * * *

Ring On

|---------|
|---------|
|---------|
|---------|
|-0~~~~~~-|
|-0~~~~~~-|

-----------------------------------
Now You've Got Something To Die For
-----------------------------------
                                                          7x
E||---------------------------|---------------------------||
B||---------------------------|---------------------------||
G||*--------------------------|--------------------------*||
D||*--------------------------|--------------------------*||
A||---------------------------|---------------------------||
D||---2--3--1--2--3--0--2--3--|--2--3--1--2--3--0--6--5---||



---------------------------|--------------------------|
---------------------------|--------------------------|
*--------------------------|--------------------------|
*--------------------------|--------------------------|
---2--1--2--3--2--3--1--3--|--2--1--2--3--2--0--2--3--|
---2--1--2--3-----3-----3--|--2--1--2--3--2--0--2--3--|


                                                       3x
--------------------------|----------------------------||-------------------|
--------------------------|----------------------------||-------------------|
--------------------------|---------------------------*||-------------------|
--------------------------|---------------------------*||-------------------|
--2--1--5--3--4--4--5--3--|--2--1--2--3---------2--1---||--0----------------|
--2--1-----3-----4--5--3--|--2--1--2--3--4-5-4--2--1---||--0----------------|



------------------|------------------|-----------------------|
------------------|------------------|-----------------------|
------------------|------------------|-----------------------|
------------------|------------------|-----------------------|
------------------|------------------|-----------------------|
------------------|------------------|----------13--1--0--1--|



-------------------|------------------|---------------------------|
-------------------|------------------|---------------------------|
-------------------|------------------|---------------------------|
-------------------|------------------|---------------------------|
--0----------------|------------------|---------------------------|
--0----------------|------------------|--1--0--1--3--4-5-4--1--0--|



--------------------------|--------------------------|
--------------------------|--------------------------|
--------------------------|--------------------------|
--------------------------|--------------------------|
--1--0--------------7--6--|--------------------------|
--------5--4--0--1--7--6--|--0--0--0--0--0--0--0--0--|



------------------------------|------------------------------|
------------------------------|------------------------------|
------------------------------|------------------------------|
------------------------------|------------------------------|
------------------------------|------------------------------|
--11--15--14--10--0--0--0--0--|--13--17--16--13--0--0--0--0--|



---------------------------|--------------------------|
---------------------------|--------------------------|
---------------------------|--------------------------|
---------------------------|--------------------------|
---------------------------|--------------------------|
--0--0--0--0--13--1--0--1--|--0--0--0--0--0--0--0--0--|



------------------------------|--------------------------|
------------------------------|--------------------------|
------------------------------|--------------------------|
------------------------------|--------------------------|
------------------------------|--------------------------|
--11--15--14--10--0--0--1--0--|--1--4--3--0--5--4--0--8--|



----------------------------|--------------------------|
----------------------------|--------------------------|
----------------------------|--------------------------|
----------------------------|--------------------------|
----------------------------|--------------------------|
--0--4--3--0--3--7--12--13--|--0--0--0--0--0--0--0--0--|



------------------------------|------------------------------|
------------------------------|------------------------------|
------------------------------|------------------------------|
------------------------------|------------------------------|
------------------------------|------------------------------|
--11--15--14--10--0--0--0--0--|--13--17--16--13--0--0--0--0--|



---------------------------|--------------------------|
---------------------------|--------------------------|
---------------------------|--------------------------|
---------------------------|--------------------------|
---------------------------|--------------------------|
--0--0--0--0--13--1--0--1--|--0--0--0--0--0--0--0--0--|



------------------------------|---------------------------|
------------------------------|---------------------------|
------------------------------|---------------------------|
------------------------------|---------------------------|
------------------------------|---------------------------|
--11--15--14--10--0--0--0--0--|--1--0--1--3--4-5-4--1--0--|



--------------------------||---------------------------|
--------------------------||---------------------------|
--------------------------||*--------------------------|
--------------------------||*--------------------------|
--1--0--------------7--6--||---------------------------|
--------5--4--0--1--7--6--||---2--3--1--2--3--0--2--3--|


                           3x
---------------------------||--------------------------|
---------------------------||--------------------------|
--------------------------*||--------------------------|
--------------------------*||--------------------------|
---------------------------||--------------------------|
--2--3--1--2--3--0--6--5---||--0--0--0--0--0--0--0--0--|



------------------------------|------------------------------|
------------------------------|------------------------------|
------------------------------|------------------------------|
------------------------------|------------------------------|
------------------------------|------------------------------|
--11--15--14--10--0--0--0--0--|--13--17--16--13--0--0--0--0--|



---------------------------|--------------------------|
---------------------------|--------------------------|
---------------------------|--------------------------|
---------------------------|--------------------------|
---------------------------|--------------------------|
--0--0--0--0--13--1--0--1--|--0--0--0--0--0--0--0--0--|



------------------------------|---------------------------|
------------------------------|---------------------------|
------------------------------|---------------------------|
------------------------------|---------------------------|
------------------------------|---------------------------|
--11--15--14--10--0--0--0--0--|--1--0--1--3--4-5-4--1--0--|



--------------------------|--------------------------|
--------------------------|--------------------------|
--------------------------|--------------------------|
--------------------------|--------------------------|
--1--0--------------7--6--|--------------------------|
--------5--4--0--1--7--6--|--0--0--0--0--0--0--0--0--|



------------------------------|------------------------------|
------------------------------|------------------------------|
------------------------------|------------------------------|
------------------------------|------------------------------|
------------------------------|------------------------------|
--11--15--14--10--0--0--0--0--|--13--17--16--13--0--0--0--0--|



---------------------------|--------------------------|
---------------------------|--------------------------|
---------------------------|--------------------------|
---------------------------|--------------------------|
---------------------------|--------------------------|
--0--0--0--0--13--1--0--1--|--0--0--0--0--0--0--0--0--|



------------------------------|--------------------------|
------------------------------|--------------------------|
------------------------------|--------------------------|
------------------------------|--------------------------|
------------------------------|--------------------------|
--11--15--14--10--0--0--1--0--|--1--4--3--0--5--4--0--8--|



----------------------------||----------------------------|
----------------------------||----------------------------|
----------------------------||*---------------------------|
----------------------------||*---------------------------|
----------------------------||----------------------------|
--0--4--3--0--3--7--12--13--||---2-2-2--2-2-2--2-2-2------|



---------------------------|---------------------------|
---------------------------|---------------------------|
---------------------------|---------------------------|
---------------------------|---------------------------|
---------------------------|---------------------------|
--2-2-2--2-2-2--2-2-2------|--2-2-2--2-2-2--2-2-2------|



------------------------||--------------------------------|
------------------------||--------------------------------|
-----------------------*||*-------------------------------|
-----------------------*||*-------------------------------|
------------------------||-----------------10--9----------|
--2-2-2--2-2-2--3-3-3---||---0-0-0--0-0-0---------13--12--|



--------------------------------|-------------------------------|
--------------------------------|-------------------------------|
--------------------------------|-------------------------------|
--------------------------------|-------------------------------|
----------------13--12----------|----------------10--9----------|
--0-0-0--0-0-0----------15--14--|--0-0-0--0-0-0---------13--12--|



-------------------------||------------------------------|
-------------------------||------------------------------|
------------------------*||*-----------------------------|
------------------------*||*-----------------------------|
--13--12-----------------||---------------10--9----------|
----------15--14--0--1---||---0--0--0--0---------13--12--|



------------------------------|-----------------------------|
------------------------------|-----------------------------|
------------------------------|-----------------------------|
------------------------------|-----------------------------|
--------------13--12----------|--------------10--9----------|
--0--0--0--0----------15--14--|--0--0--0--0---------13--12--|



-------------------------------||------------------------------|
-------------------------------||------------------------------|
------------------------------*||*-----------------------------|
------------------------------*||*-----------------------------|
--13--12-----------------------||---------------10--9----------|
----------15--14--0--1--4--3---||---0--0--0--0---------13--12--|



------------------------------|-----------------------------|
------------------------------|-----------------------------|
------------------------------|-----------------------------|
------------------------------|-----------------------------|
--------------13--12----------|--------------10--9----------|
--0--0--0--0----------15--14--|--0--0--0--0---------13--12--|



-------------------------------||------------------|---------------------------|
-------------------------------||------------------|---------------------------|
------------------------------*||------------------|---------------------------|
------------------------------*||------------------|---------------------------|
--13--12-----------------------||------------------|--0-0-0--0--0----0--0-0-0--|
----------15--14--0--1--4--3---||------------------|--0-0-0--0--0----0--0-0-0--|



--------------------------|---------------------------|------------------------|
--------------------------|---------------------------|------------------------|
--------------------------|---------------------------|------------------------|
--------------------------|---------------------------|------------------------|
--1--0--3--0--------------|--0-0-0--0--0----0--0-0-0--|------------------------|
--1--0--3--0--3--4--3--1--|--0-0-0--0--0----0--0-0-0--|--12b-----12b-----12/---|



|----------------------------|--------------------------|
|----------------------------|--------------------------|
|*---------------------------|--------------------------|
|*---------------------------|--------------------------|
|---0-0-0--0--0--0--0--0--0--|--1--0--3--0--------------|
|---0-0-0--0--0--0--0--0--0--|--1--0--3--0--3--4--3--1--|


                                                     2x
---------------------------|-------------------------||
---------------------------|-------------------------||
---------------------------|------------------------*||
---------------------------|------------------------*||
--0-0-0--0--0----0--0-0-0--|-------------------------||
--0-0-0--0--0----0--0-0-0--|--12b-----12b-----12/----||



---------------------------|--------------------------|
---------------------------|--------------------------|
*--------------------------|--------------------------|
*--------------------------|--------------------------|
---1--0--0--0--0--0--0--0--|--1--0--3--0--3--4--3--1--|
---1--0--0--0--0--0--0--0--|--1--0--3--0--3--4--3--1--|


                                                    2x
--------------------------|-------------------------||
--------------------------|-------------------------||
--------------------------|------------------------*||
--------------------------|------------------------*||
--1--0--0--0--0--0--0--0--|-------------------------||
--1--0--0--0--0--0--0--0--|--12b-----12b-----12/----||



--------------------------|--------------------------|----|----|
--------------------------|--------------------------|----|----|
--------------------------|--------------------------|----|----|
--------------------------|--------------------------|----|----|
--1--0--0--0--0--0--0--0--|--1--0--3--0--3--4--3--1--|----|----|
--1--0--0--0--0--0--0--0--|--1--0--3--0--3--4--3--1--|----|----|



|----------------------------|--------------------------|
|----------------------------|--------------------------|
|*---------------------------|--------------------------|
|*---------------------------|--------------------------|
|---0-0-0--0--0--0--0--0--0--|--1--0--3--0--3--4--3--1--|
|---0-0-0--0--0--0--0--0--0--|--1--0--3--0--3--4--3--1--|


                                                  2x
---------------------------|----------------------||---------------------------|
---------------------------|----------------------||---------------------------|
---------------------------|---------------------*||---------------------------|
---------------------------|---------------------*||---------------------------|
--0-0-0--0--0--0--0--0--0--|----------------------||--0-0-0--0--0--0--0--0--0--|
--0-0-0--0--0--0--0--0--0--|--1b-----1b-----1b----||--0-0-0--0--0--0--0--0--0--|



--------------------------||
--------------------------||
--------------------------||
--------------------------||
--1--0--3--0--3--4--3--1--||
--1--0--3--0--3--4--3--1--||


                      Now You've Got Something To Die For


Mark Morton
                                                          7x
E||---------------------------|---------------------------||
B||---------------------------|---------------------------||
G||*--------------------------|--------------------------*||
D||*--------------------------|--------------------------*||
A||---------------------------|---------------------------||
D||---2--3--1--2--3--0--2--3--|--2--3--1--2--3--0--6--5---||



---------------------------|--------------------------|
---------------------------|--------------------------|
*--------------------------|--------------------------|
*--------------------------|--------------------------|
---2--1--2--3--2--3--1--3--|--2--1--2--3--2--0--2--3--|
---2--1--2--3-----3-----3--|--2--1--2--3--2--0--2--3--|


                                                       3x
--------------------------|----------------------------||
--------------------------|----------------------------||
--------------------------|---------------------------*||
--------------------------|---------------------------*||
--2--1--5--3--4--4--5--3--|--2--1--2--3---------2--1---||
--2--1-----3-----4--5--3--|--2--1--2--3--4-5-4--2--1---||




--------------------------|------------------------------|
--------------------------|------------------------------|
--------------------------|------------------------------|
--------------------------|------------------------------|
--------------------------|------------------------------|
--0--0--0--0--0--0--0--0--|--11--15--14--10--0--0--0--0--|



------------------------------|---------------------------|
------------------------------|---------------------------|
------------------------------|---------------------------|
------------------------------|---------------------------|
------------------------------|---------------------------|
--13--17--16--13--0--0--0--0--|--0--0--0--0--13--1--0--1--|



--------------------------|------------------------------|
--------------------------|------------------------------|
--------------------------|------------------------------|
--------------------------|------------------------------|
--------------------------|------------------------------|
--0--0--0--0--0--0--0--0--|--11--15--14--10--0--0--0--0--|



---------------------------|--------------------------|
---------------------------|--------------------------|
---------------------------|--------------------------|
---------------------------|--------------------------|
---------------------------|--1--0--------------7--6--|
--1--0--1--3--4-5-4--1--0--|--------5--4--0--1--7--6--|



--------------------------|------------------------------|
--------------------------|------------------------------|
--------------------------|------------------------------|
--------------------------|------------------------------|
--------------------------|------------------------------|
--0--0--0--0--0--0--0--0--|--11--15--14--10--0--0--0--0--|



------------------------------|---------------------------|
------------------------------|---------------------------|
------------------------------|---------------------------|
------------------------------|---------------------------|
------------------------------|---------------------------|
--13--17--16--13--0--0--0--0--|--0--0--0--0--13--1--0--1--|



--------------------------|------------------------------|
--------------------------|------------------------------|
--------------------------|------------------------------|
--------------------------|------------------------------|
--------------------------|------------------------------|
--0--0--0--0--0--0--0--0--|--11--15--14--10--0--0--1--0--|



--------------------------|----------------------------|
--------------------------|----------------------------|
--------------------------|----------------------------|
--------------------------|----------------------------|
--------------------------|----------------------------|
--1--4--3--0--5--4--0--8--|--0--4--3--0--3--7--12--13--|



--------------------------|------------------------------|
--------------------------|------------------------------|
--------------------------|------------------------------|
--------------------------|------------------------------|
--------------------------|------------------------------|
--0--0--0--0--0--0--0--0--|--11--15--14--10--0--0--0--0--|



------------------------------|---------------------------|
------------------------------|---------------------------|
------------------------------|---------------------------|
------------------------------|---------------------------|
------------------------------|---------------------------|
--13--17--16--13--0--0--0--0--|--0--0--0--0--13--1--0--1--|



--------------------------|------------------------------|
--------------------------|------------------------------|
--------------------------|------------------------------|
--------------------------|------------------------------|
--------------------------|------------------------------|
--0--0--0--0--0--0--0--0--|--11--15--14--10--0--0--0--0--|



---------------------------|--------------------------|
---------------------------|--------------------------|
---------------------------|--------------------------|
---------------------------|--------------------------|
---------------------------|--1--0--------------7--6--|
--1--0--1--3--4-5-4--1--0--|--------5--4--0--1--7--6--|


                                                        3x
|---------------------------|---------------------------||
|---------------------------|---------------------------||
|*--------------------------|--------------------------*||
|*--------------------------|--------------------------*||
|---------------------------|---------------------------||
|---2--3--1--2--3--0--2--3--|--2--3--1--2--3--0--6--5---||



--------------------------|------------------------------|
--------------------------|------------------------------|
--------------------------|------------------------------|
--------------------------|------------------------------|
--------------------------|------------------------------|
--0--0--0--0--0--0--0--0--|--11--15--14--10--0--0--0--0--|



------------------------------|---------------------------|
------------------------------|---------------------------|
------------------------------|---------------------------|
------------------------------|---------------------------|
------------------------------|---------------------------|
--13--17--16--13--0--0--0--0--|--0--0--0--0--13--1--0--1--|



--------------------------|------------------------------|
--------------------------|------------------------------|
--------------------------|------------------------------|
--------------------------|------------------------------|
--------------------------|------------------------------|
--0--0--0--0--0--0--0--0--|--11--15--14--10--0--0--0--0--|



---------------------------|--------------------------|
---------------------------|--------------------------|
---------------------------|--------------------------|
---------------------------|--------------------------|
---------------------------|--1--0--------------7--6--|
--1--0--1--3--4-5-4--1--0--|--------5--4--0--1--7--6--|



--------------------------|------------------------------|
--------------------------|------------------------------|
--------------------------|------------------------------|
--------------------------|------------------------------|
--------------------------|------------------------------|
--0--0--0--0--0--0--0--0--|--11--15--14--10--0--0--0--0--|



------------------------------|---------------------------|
------------------------------|---------------------------|
------------------------------|---------------------------|
------------------------------|---------------------------|
------------------------------|---------------------------|
--13--17--16--13--0--0--0--0--|--0--0--0--0--13--1--0--1--|



--------------------------|------------------------------|
--------------------------|------------------------------|
--------------------------|------------------------------|
--------------------------|------------------------------|
--------------------------|------------------------------|
--0--0--0--0--0--0--0--0--|--11--15--14--10--0--0--1--0--|



--------------------------|----------------------------|
--------------------------|----------------------------|
--------------------------|----------------------------|
--------------------------|----------------------------|
--------------------------|----------------------------|
--1--4--3--0--5--4--0--8--|--0--4--3--0--3--7--12--13--|



|----------------------------|---------------------------|
|----------------------------|---------------------------|
|*---------------------------|---------------------------|
|*---------------------------|---------------------------|
|----------------------------|---------------------------|
|---2-2-2--2-2-2--2-2-2------|--2-2-2--2-2-2--2-2-2------|



---------------------------|------------------------||
---------------------------|------------------------||
---------------------------|-----------------------*||
---------------------------|-----------------------*||
---------------------------|------------------------||
--2-2-2--2-2-2--2-2-2------|--2-2-2--2-2-2--3-3-3---||



--------------------------------|--------------------------------|
--------------------------------|--------------------------------|
*-------------------------------|--------------------------------|
*-------------------------------|--------------------------------|
-----------------10--9----------|----------------13--12----------|
---0-0-0--0-0-0---------13--12--|--0-0-0--0-0-0----------15--14--|



-------------------------------|-----------------------||
-------------------------------|-----------------------||
-------------------------------|----------------------*||
-------------------------------|----------------------*||
----------------10--9----------|-----------------------||
--0-0-0--0-0-0---------13--12--|--0-0-0--0-0-0--0--1---||



------------------------------|------------------------------|
------------------------------|------------------------------|
*-----------------------------|------------------------------|
*-----------------------------|------------------------------|
---------------10--9----------|--------------13--12----------|
---0--0--0--0---------13--12--|--0--0--0--0----------15--14--|



-----------------------------|-------------------------------||
-----------------------------|-------------------------------||
-----------------------------|------------------------------*||
-----------------------------|------------------------------*||
--------------10--9----------|--13--12-----------------------||
--0--0--0--0---------13--12--|----------15--14--0--1--4--3---||



------------------------------|------------------------------|
------------------------------|------------------------------|
*-----------------------------|------------------------------|
*-----------------------------|--------------12--11----------|
---------------13--12--10--9--|----------------------13--12--|
---0--0--0--0-----------------|--0--0--0--0------------------|



-----------------------------|-------------------------------||
-----------------------------|-------------------------------||
-----------------------------|------------------------------*||
-----------------------------|--12--11----------------------*||
--------------13--12--10--9--|----------13--12---------------||
--0--0--0--0-----------------|------------------0--1--4--3---||



------------------------|---------------------------|--------------------------|
------------------------|---------------------------|--------------------------|
------------------------|---------------------------|--------------------------|
------------------------|---------------------------|--------------------------|
--17b-----17b-----17/---|--0-0-0--0--0----0--0-0-0--|--1--0--3--0--------------|
--12b-----12b-----12/---|--0-0-0--0--0----0--0-0-0--|--1--0--3--0--3--4--3--1--|



---------------------------|------------------------|
---------------------------|------------------------|
---------------------------|------------------------|
---------------------------|------------------------|
--0-0-0--0--0----0--0-0-0--|--17b-----17b-----17/---|
--0-0-0--0--0----0--0-0-0--|------------------------|



|----------------------------|--------------------------|
|----------------------------|--------------------------|
|*---------------------------|--------------------------|
|*---------------------------|--------------------------|
|---0-0-0--0--0--0--0--0--0--|--1--0--3--0--------------|
|---0-0-0--0--0--0--0--0--0--|--1--0--3--0--3--4--3--1--|


                                                     2x
---------------------------|-------------------------||
---------------------------|-------------------------||
---------------------------|------------------------*||
---------------------------|------------------------*||
--0-0-0--0--0----0--0-0-0--|--17b-----17b-----17/----||
--0-0-0--0--0----0--0-0-0--|-------------------------||



---------------------------|--------------------------|
---------------------------|--------------------------|
*--------------------------|--------------------------|
*--------------------------|--------------------------|
---1--0--0--0--0--0--0--0--|--1--0--3--0--3--4--3--1--|
---1--0--0--0--0--0--0--0--|--1--0--3--0--3--4--3--1--|


                                                    2x
--------------------------|-------------------------||
--------------------------|-------------------------||
--------------------------|------------------------*||
--------------------------|------------------------*||
--1--0--0--0--0--0--0--0--|--17b-----17b-----17/----||
--1--0--0--0--0--0--0--0--|-------------------------||



--------------------------|--------------------------|------|------|
--------------------------|--------------------------|------|------|
--------------------------|--------------------------|------|------|
--------------------------|--------------------------|------|------|
--1--0--0--0--0--0--0--0--|--1--0--3--0--3--4--3--1--|------|------|
--1--0--0--0--0--0--0--0--|--1--0--3--0--3--4--3--1--|------|------|



|----------------------------|--------------------------|
|----------------------------|--------------------------|
|*---------------------------|--------------------------|
|*---------------------------|--------------------------|
|---0-0-0--0--0--0--0--0--0--|--1--0--3--0--3--4--3--1--|
|---0-0-0--0--0--0--0--0--0--|--1--0--3--0--3--4--3--1--|


                                                  2x
---------------------------|----------------------||---------------------------|
---------------------------|----------------------||---------------------------|
---------------------------|---------------------*||---------------------------|
---------------------------|---------------------*||---------------------------|
--0-0-0--0--0--0--0--0--0--|----------------------||--0-0-0--0--0--0--0--0--0--|
--0-0-0--0--0--0--0--0--0--|--1b-----1b-----1b----||--0-0-0--0--0--0--0--0--0--|



--------------------------||
--------------------------||
--------------------------||
--------------------------||
--1--0--3--0--3--4--3--1--||
--1--0--3--0--3--4--3--1--||


--------------
The Faded Line
--------------
    Q=190
   4/4
    Gtrs I, II
    PM--|   PM  PM  PM    PM  PM  PM  PM------|   PM  PM  PM    PM  PM  PM  PM
    S S E E E E E E E   E E E E E E E E   S S E E E E E E E   E E E E E E E E
||--------------------|-----------------|-------------------|-----------------|
||o-------------------|-----------------|-------------------|-----------------|
||--------------------|-----------------|-------------------|-----------------|
||--------------------|-----------------|-------------------|-----------------|
||o-------9---9---9---|-9---9---9---9---|-------8---8---8---|-8---8---8---8---|
||--0-0-0---0---0---0-|---0---0---0---0-|-0-0-0---0---0---0-|---0---0---0---0-|


  PM--|    PM   PM   PM    PM  PM  PM  PM-
  S S E  E E  E E  E E   E E E E E E E E
|----------------------|-----------------|
|----------------------|-----------------|
|----------------------|-----------------|
|----------------------|-----------------|
|-------11---11---11---|-6---6---6---6---|
|-0-0-0----0----0----0-|---0---0---0---0-|


 -----|   PM  PM  PM
  S S E E E E E E E    E E E E E E  E E    4x
|-------------------|----------------------||
|-------------------|---------------------o||
|-------------------|--------7-------------||
|-------------------|-10-8-7---8-----------||
|-------5---5---5---|------------9-10-6---o||
|-0-0-0---0---0---0-|----------------------||


                             6/4
    PM----------------------------------------------|
    S S E S S E S S E S S E   S S E S S E S S E S S E H
||--------------------------|------------------------------|
||o-------------------------|------------------------------|
||--------------------------|------------------------------|
||--------------------------|------------------------------|
||o-------------------------|------------------------------|
||--0-0-0-0-0-0-0-0-0-0-0-0-|-0-0-0-0-0-0-0-0-0-0-0-0------|


 4/4                       6/4
  PM--------------------------------------------|
  S S E S S E S S E S S E   S S E S S E S S E S S H    +E
|-------------------------|-----------------------------------|
|-------------------------|-----------------------------------|
|-------------------------|-----------------------------------|
|-------------------------|-----------------------3----(3)----|
|-------------------------|-----------------------3----(3)----|
|-0-0-0-0-0-0-0-0-0-0-0-0-|-0-0-0-0-0-0-0-0-0-0-0-3----(3)----|


 4/4
  PM----------------------------------|
  S S E S S E S S E S S E   S S E S S E  H
|-------------------------|-------------------|
|-------------------------|-------------------|
|-------------------------|-------------------|
|-------------------------|-------------------|
|-------------------------|-------------------|
|-3-3-3-3-3-3-3-3-3-3-3-3-|-3-3-3-3-3-3-------|


  PM----------------------------------------------|
  S S E S S E S S E S S E   S S E S S E S S S S E E
|-------------------------|-----------------------------||
|-------------------------|----------------------------o||
|-------------------------|-----------------------------||
|-------------------------|-----------------------------||
|-------------------------|----------------------------o||
|-3-3-3-3-3-3-3-3-3-4-4-4-|-4-4-4-7-3-0-6-3-0-3-0-0-----||


  Gtr I
  PM----------------------|
  E E E E E E E E   E E E E  S  S S  S  S S  E
|-----------------|-------------------------------|
|-----------------|-------------------------------|
|-----------------|-------------------------------|
|-----------------|-------------------------------|
|-----------------|-------------------------------|
|-0-0-0-0-0-0-0-0-|-0-0-0-0-19-15-0-18-15-0-15----|


                            Gtrs I, II
  E E E E E E E E   E E E E S Q..
|-----------------|------------------|
|-----------------|------------------|
|-----------------|------------------|
|-----------------|---------0-8------|
|-----------------|---------0-8------|
|-0-0-0-0-0-0-0-0-|-0-0-0-0-0-8\-----|


    PM------------------------|
    E E E E  E E E E    E E E E   S  S S  S   S S  E     4x
||--------------------|----------------------------------||
||o-------------------|---------------------------------o||
||--------------------|----------------------------------||
||--------------------|----------------------------------||
||o-------------------|---------------------------------o||
||--0-0-0-0--0-0-0-0--|-0-0-0-0--19-15-0-18--15-0-15-----||


    PM----------------------------------|
    E S S E S S E S S E S S   E S S E S S  S  S S  S  S S  E     4x
||--------------------------|------------------------------------||
||o-------------------------|-----------------------------------o||
||--------------------------|------------------------------------||
||--------------------------|------------------------------------||
||o-------------------------|-----------------------------------o||
||--0-0-0-0-0-0-0-0-0-0-0-0-|-0-0-0-0-0-0-19-15-0-18-15-0-15-----||


    Q=180
    PM--|   PM|   PM|    PM|     PM|    PM|   PM|
    S S E E S S E S S  E S S   E S S  E S S E S S Q
||---------------------------|-------------------------|
||o--------------------------|-------------------------|
||---------------------------|-------------------------|
||---------------------------|-7-----------------------|
||o-------7-----8-----10-----|-------10-----8-----7----|
||--8-8-8---8-8---8-8----8-8-|---8-8----8-8---8-8------|


  PM--|   PM|   PM|   PM|     PM|   PM|
  S S E E S S E S S E S S   E S S E S S S S E S S E
|-------------------------|----------------------------|
|-------------------------|----------------------------|
|-------------------------|----------------------------|
|-------------------5-----|-7-----5--------------------|
|-------7-----8-----------|-------------5h7p5-4h5p4----|
|-5-5-5---5-5---5-5---5-5-|---5-5---5-5----------------|


  Q=190
  PM----------------------------------|
  E S S E S S E S S E S S   E S S E S S  S  S S  S  S S  E
|-------------------------|-----------------------------------|
|-------------------------|-----------------------------------|
|-------------------------|-----------------------------------|
|-------------------------|-----------------------------------|
|-------------------------|-----------------------------------|
|-0-0-0-0-0-0-0-0-0-0-0-0-|-0-0-0-0-0-0-19-15-0-18-15-0-15----|


  PM----------------------------------|
  E S S E S S E S S E S S   E S S E S S  S  S S  S  S S  E
|-------------------------|------------------------------------||
|-------------------------|-----------------------------------o||
|-------------------------|------------------------------------||
|-------------------------|------------------------------------||
|-------------------------|-----------------------------------o||
|-0-0-0-0-0-0-0-0-0-0-0-0-|-0-0-0-0-0-0-19-15-0-18-15-0-15-----||


    Q=190
    S S S S S S S S H      S S S S S S S S H     S S S S S S S S H
||-----------------------|---------------------|-------------------|
||o----------------------|---------------------|-------------------|
||-----------------------|---------------------|-------------------|
||-----------------------|---------------------|-------------------|
||o-0-0-0-0-0-0-0-0------|-0-0-0-0-0-0-0-0-----|-0-0-0-0-0-0-0-0---|
||--0-0-0-0-0-0-0-0------|-0-0-0-0-0-0-0-0-----|-0-0-0-0-0-0-0-0---|


  S S S S S S S S S S S S S S E
|-----------------------------------||
|----------------------------------o||
|-----------------------------------||
|-----------------------------------||
|-0-0-0-0-0-0-0-0-2-0-2-2-2-2------o||
|-0-0-0-0-0-0-0-0-2-0-2-2-2-2-------||


    Q=190
    Gtr I
    S S S S  S  S  S  S H
||---------------------------|
||o--------------------------|
||---------------------------|
||---------------------------|
||o-0-0-0-0--0--0--0--0------|
||--0-0-0-0--0--0--0--0------|
|
|   Gtr II
|   H        E  E  E  E
||---------------------------|
||o--------------------------|
||---------------------------|
||---------------------------|
||o--------------------------|
||----------12h13-12h13------|


   S S  S  S S  S  S  S H     S S S S  S  S  S  S H
|---------------------------|-----------------------|
|---------------------------|-----------------------|
|---------------------------|-----------------------|
|---------------------------|-----------------------|
|--0-0--0--0-0--0--0--0-----|-0-0-0-0--0--0--0--0---|
|--0-0--0--0-0--0--0--0-----|-0-0-0-0--0--0--0--0---|
|
|  ~~
|  Q    E  Q    E  E  E       H        E  E  E  E
|---------------------------|-----------------------|
|--
Добавлено: 09.07.2012
Другие материалы по этой песне:

Страница создана 01.07.2012
http://primanota.ru/lamb-of-god/ashes-of-the-wake-album-chords.htm
Привет, Гость.
Предлагаем пройти революционный курс по гитаре.
Подарок от PrimaNota.Ru, забирай!