PrimaNota.ru - самый крупный в мире бесплатный архив песенных текстов, аккордов, табулатур и нот


Lalo Brito - Mientras Me Enamoras - таба, видео

Регистрация Запомнить меня
Войти через:  Facebook Google Twitter Vk Yandex Mail.ru

Lalo Brito - Mientras Me Enamoras - таба, видео

Печатать
Просмотров: 54
Уроки эстрадного вокала в Санкт-Петербурге
[Intro]

  G                 D               Am                C
e|---------3------------------2---------------0-------------------0--------------|
B|---------0------------------3---------------1-------------------1--------------|
G|---------0------------------2---------------2-------------------0--------------|
D|-------0-----------------0---------------2-------------------2-----------------|
A|-----2-----------------0---------------0-------------------3-------------------|
E|---3-----------------0---------------0-------------------0---------------------|

  G                 D               Am                C
e|---------3------------------2---------------0-------------------0--------------|
B|---------0------------------3---------------1-------------------1--------------|
G|---------0------------------2---------------2-------------------0--------------|
D|-------0-----------------0---------------2-------------------2-----------------|
A|-----2-----------------0---------------0-------------------3-------------------|
E|---3-----------------0---------------0-------------------0---------------------|


[Verse]

    Cada vez que estoy contigo, el vacio, de esta absurda rutina se va
  G                 D               Am                C
e|---------3------------------2---------------0-------------------0--------------|
B|---------0------------------3---------------1-------------------1--------------|
G|---------0------------------2---------------2-------------------0--------------|
D|-------0-----------------0---------------2-------------------2-----------------|
A|-----2-----------------0---------------0-------------------3-------------------|
E|---3-----------------0---------------0-------------------0---------------------|

    y una extraña sensación toca a mi puerta
  G                 D               Am                C
e|---------3------------------2---------------0-------------------0--------------|
B|---------0------------------3---------------1-------------------1--------------|
G|---------0------------------2---------------2-------------------0--------------|
D|-------0-----------------0---------------2-------------------2-----------------|
A|-----2-----------------0---------------0-------------------3-------------------|
E|---3-----------------0---------------0-------------------0---------------------|

    elevaste al mil por ciento lo que siento yo que nunca llegue a imaginar 
  G                 D               Am                C
e|---------3------------------2---------------0-------------------0--------------|
B|---------0------------------3---------------1-------------------1--------------|
G|---------0------------------2---------------2-------------------0--------------|
D|-------0-----------------0---------------2-------------------2-----------------|
A|-----2-----------------0---------------0-------------------3-------------------|
E|---3-----------------0---------------0-------------------0---------------------|

   extrañarte cuando apenas hoy te alejas
  G                 D               Am                C
e|---------3------------------2---------------0-------------------0--------------|
B|---------0------------------3---------------1-------------------1--------------|
G|---------0------------------2---------------2-------------------0--------------|
D|-------0-----------------0---------------2-------------------2-----------------|
A|-----2-----------------0---------------0-------------------3-------------------|
E|---3-----------------0---------------0-------------------0---------------------|


[Pre-Chorus]

Am                C
tu mirada me lo dijo
      G              D
la locura es de los dos
Am                     C
se escapo de nuestras manos
         G         D
fuimos presa del amor


[Chorus]

                      G
quiero estar junto a ti
             D              Am          C       
y hacerte sentir que fuiste hecha para mi
                G                  D
quedarme en tu voz, como un amuleto
         Am              C
y convertirlo en tu canción
               G                    D
Y pasarán las horas mientras me enamoras
           Am                 C
tengo tu sonrisa y tengo al sol
            G
ya no pido nada,
                D              Am
se que nuestra magia no tendra fin
  C
no voy a dejarte ir

G D AM 

  C
no voy a dejarte ir

G D Am C


[Verse]

G                      D
Cada vez que estoy contigo
       Am        C                   G
los minutos como agua del mar se me van
                   D            Am           C
nos quedamos a la luz de las estrellas


[Pre-Chorus]

Am                C
tu mirada me lo dijo
      G              D
la locura es de los dos
Am                     C
se escapo de nuestras manos
         G         D
fuimos presa del amor


[Chorus]

                      G
quiero estar junto a ti
             D              Am          C       
y hacerte sentir que fuiste hecha para mi
                G                  D
quedarme en tu voz, como un amuleto
         Am              C
y convertirlo en tu canción
               G                    D
Y pasarán las horas mientras me enamoras
           Am                 C
tengo tu sonrisa y tengo al sol
            G
ya no pido nada,
                D              Am
se que nuestra magia no tendra fin
  C
no voy a dejarte ir

G D AM 

  C
no voy a dejarte ir

G D Am C


[Bridge]

Am                C
tu mirada me lo dijo
      G              D
la locura es de los dos
Am                     C
se escapo de nuestras manos
         G         D
fuimos presa del amor


[Chorus]

                      G
quiero estar junto a ti
             D              Am          C       
y hacerte sentir que fuiste hecha para mi
                G                  D
quedarme en tu voz, como un amuleto
         Am              C
y convertirlo en tu canción
               G                    D
Y pasarán las horas mientras me enamoras
           Am                 C
tengo tu sonrisa y tengo al sol
            G
ya no pido nada,
                D              Am
se que nuestra magia no tendra fin
  C
no voy a dejarte ir

G D AM 

  C
no voy a dejarte ir

G D Am C
Добавлено: 18.08.2017
Другие материалы по этой песне:
  • Аккорды и текст

Страница создана 18.08.2017
http://primanota.ru/lalo-brito/mientras-me-enamoras-chords.htm
Привет, Гость.
Предлагаем пройти революционный курс по гитаре.
Подарок от PrimaNota.Ru, забирай!