PrimaNota.ru - самый крупный в мире бесплатный архив песенных текстов, аккордов, табулатур и нот


Lajon - Angels Son - таба, видео

Регистрация Запомнить меня
Войти через:  Facebook Google Twitter Vk Yandex Mail.ru

Lajon - Angels Son - таба, видео

Печатать
Просмотров: 64
Уроки эстрадного вокала в Санкт-Петербурге
                  Lajon (Of Sevendust)-Angel's Son
                      Tabbed By Geoff Booth
                 This is all my own individual work


^=slide up to the next note
*=use whammy bar


Intro:

------5----|------5------|------5-----|------5--------|
------3----|------3------|------3-----|------3--------|
---------5-|---------5---|---------5--|---------5-----|
-----------|-------------|------------|---------------|
3-0--------|3-0----------|--0---------|--0------------|
-----------|-------------|1-----------|3--------------|


------5----|-5------5----|------5-----|-5-------5-----|
------3----|-3------3----|------3-----|-3-------3-----|
---------5-|----5------5-|---------5--|----5-------5--|
-----------|-------------|------------|---------------|
--0--------|-------------|--0---------|-------5-------|
4----------|-------------|4-----------|---------------|


-----------|-0-----------|------------|---------------|
-----------|-1-----------|------------|---------------|
-----------|-2-----------|------------|---------------|
-----------|-0-----------|------------|---------------|
------3----|-3-----------|------------|---------------|
0-0-1------|-4-----------|------------|---------------|



Body:

8888-6-5---|5555--3-5^6--|6666-5-3----|5555-3-2-----|
-----------|-------------|------------|-------------|
-----------|-------------|------------|-------------|
-----------|-------------|------------|-------------|
-----------|-------------|------------|-------------|
-----------|-------------|------------|-------------|


       8888-6-5---|5555--3-5^6--|6666-5-3----|5555-3-2-----|
       -----------|-------------|------------|-------------|
       -----------|-------------|------------|-------------|
Piano  -----------|-------------|------------|-------------|
       -----------|-------------|------------|-------------|
       -----------|-------------|------------|-------------|


8888-6-5---|5555--3-5^6--|6666-5-3----|5555-3-2-----|
-----------|-------------|------------|-------------|
-----------|-------------|------------|-------------|
-----------|-------------|------------|-------------|
-----------|-------------|------------|-------------|
-----------|-------------|------------|-------------|


8888-6-5---|5555--3-5^6--|6666-5-3----|5555-3-2-----|
-----------|-------------|------------|-------------|
-----------|-------------|------------|-------------|
-----------|-------------|------------|-------------|
-----------|-------------|------------|-------------|
-----------|-------------|------------|-------------|
     
Добавлено: 28.10.2013
Другие материалы по этой песне:
  • Аккорды и текст

Страница создана 01.10.2013
http://primanota.ru/lajon/angels-son-chords.htm
Привет, Гость.
Предлагаем пройти революционный курс по гитаре.
Подарок от PrimaNota.Ru, забирай!