PrimaNota.ru - самый крупный в мире бесплатный архив песенных текстов, аккордов, табулатур и нот


Laith Al-deen - Keiner Wie Du - таба, видео

Регистрация Запомнить меня
Войти через:  Facebook Google Twitter Vk Yandex Mail.ru

Laith Al-deen - Keiner Wie Du - таба, видео

Печатать
Просмотров: 114
Versucht mal diese Kadenz, mit ein bissel Groov und slide,
über intro und Strophe zuspielen.

E|------3----3-------3----3---------3----|
B|------3----3---0---3----3---0-----3--0-|
G|----0-----0----0---0----0---0---0----0-|
D|---2-----2---4----0---2----4---2----4--|
A|-------3----5----2---3----5--------5---|
E|---------------------------------------|
    G6


Beim Ref. war ich noch nich ganz fertig
aber versucht mal dieses:

G6|G7M|C7M,G7M|G6,G7M|

e|-----    E|-----|
b|--0--    B|--0--|
g|--0--    G|--0--|
d|--4--    D|--2--|
a|--5--    A|--3--|
E|-----    E|-----|

   G7M       C7M

Viel Spass beim Spielen =)
Добавлено: 15.03.2012
Другие материалы по этой песне:
  • Аккорды и текст

Страница создана 15.03.2012
http://primanota.ru/laith-al-deen/keiner-wie-du-chords.htm
Привет, Гость.
Предлагаем пройти революционный курс по гитаре.
Подарок от PrimaNota.Ru, забирай!