PrimaNota.ru - самый крупный в мире бесплатный архив песенных текстов, аккордов, табулатур и нот


Lagwagon - Trashed - таба, видео

Регистрация Запомнить меня
Войти через:  Facebook Google Twitter Vk Yandex Mail.ru

Lagwagon - Trashed - таба, видео

Печатать
Просмотров: 70
So here's a (almost) complete transcription of Lag Wagon's "Trashed".
 I just had a dull New Year,  so I thought that maybe I should use it for
 something useful. Well, instead of that I decided to transcribe Trashed,
 which I have intended a while. If you try to learn the tunes, the record

 itself is _highly_ recommanded.
   As everyone knows (?) Lag Wagon has two guitars, so it's not _that_
 easy to just transcript the tunes; I've maid some kind of compromisses,
 that are "wrong", but sound "real".
   The solo in "Stokin' the neighbours" isn't here. I thought that if some

 one is technically skilled enough to play it (not me!), I'm sure he is not
 downloading tablatures and trying to learn Lag Wagon.
   I take no responsibilities for how correct the tunes are, so don't claim

 that you know them all, 'cause there are lot of errors in here.


                                             Cybelius / Orange
                                             cybelius@freenet.hut.fi

 INTRO: 
 A               G               F               -
 ----------------------------------------------------------------|
 ----------------------------------------------------------------|
 2-----------------------------------------------5-7---9---7-5---|
 ----------------2-----------------------------------------------|
 --------------------------------3---------------3-5---7---5-3---|
 ----------------------------------------------------------------|


 A               E               F               -
 ----------------------------------------------------------------|
 ----------------------------------------------------------------|
 2-----------------------------------------------5-7-7-7-7-9-9-9-|
 ----------------2-----------------------------------------------|
 --------------------------------3---------------3-5-5-5-5-7-7-7-|
 ----------------------------------------------------------------|


 A               E               F               -
 ----------------------------------------------------------------|
 ------------------------------------------------1---3-5---3-1---|
 2---2-2-2-2-2-2-0/2-2-2-2-2-2-2-0/2-2-2-2-2-2-2-2---4-5---4-2---|
 ----------------------------------------------------------------|
 ----------------------------------------------------------------|
 ----------------------------------------------------------------|


 A               E               F               -
 ----------------------------------------------------------------|
 ------------------------------------------------1-3-3-3-3-5-5-5-|
 2---2-2-2-2-2-2-0/2-2-2-2-2-2-2-0/2-2-2-2-2-2-2-2-4-4-4-4-5-5-5-|
 ----------------------------------------------------------------|
 ----------------------------------------------------------------|
 ----------------------------------------------------------------|



 SOMETHING:

 F       D       E       F       D       A      
 ------------------------------------------------|
 ------------------------------------------------|
 10------7-------9-------10------7---------------|
 10------7-------9-------10------7-----------7---|
 8-------5-------7-------8-------5-----------7---|
 ----------------------------------------5-5-5---|


 F       D       E                    
 --------------------------------|
 --------------------------------|
 10------7-------9---9-9-9-9-9-9-|
 10------7-------9---9-9-9-9-9-9-|
 8-------5-------7---7-7-7-7-7-7-|
 --------------------------------|



 MAIN PART (two times):

 A               F               C               D
 ----------------------------------------------------------------|
 ----------------------------------------------------------------|
 ----------------1010--9-10------5-5---4-5-------7-------7--5--4-|
 7-------7-------1010--9-10------5-5---4-5-------7-------7--5--4-|
 7-------7-------8-8---7-8-------3-3---2-3-------5-------5--3--2-|
 5-----5-5-------------------------------------------------------|


 A               F               C               D
 ----------------------------------------------------------------|
 ----------------------------------------------------------------|
 ----------------1010--9-10------5-5---4-5-------7777------------|
 7-----5-7-------1010--9-10------5-5---4-5-------7777------------|
 7-----5-7-------8-8---7-8-------3-3---2-3-------5555----3--2--3-|
 5-----3-5-------------------------------------------------------|


 F       C       F               A       G  A  B A       G  C  D
 ----------------------------------------------------------------|
 ----------------------------------------------------------------|
 x-10-10----9-10-x------------------------------------------5--7-|
 x-10-10-10-9-10-x-10-9--7--9-10-x-7--7--5--7--9-x-7--7--5--5--7-|
 x-8--8--10-7-8--x-12-10-8--1012-x-7--7--5--7--9-x-7--7--5--3--5-|
 --------8-------------------------5--5--3--5--7-x-5--5--3-------|


 F               -                               Here one beat too much :)
 ----------------------------------------------------|
 ----------------------------------------------------|
 x-10--10----10--------------------------------------|
 x-10--10----10--7-5-----5-----------------------x---|
 x-8---8-----8---------7---7-5---7-5-----5-------x---|
 ------------------------------8-----8-7----8--7-x---|


                                                     
 SOLO CHORDS:

 A         C   A C       E D   C A         C   A C  A  C B  A  G
 ----------------------------------------------------------------|
 ----------------------------------------------------------------|
 ----------5-----5-5---5-9-7---5-----------5-----5-----5-4--3----|
 7-7---7-x-5---7-5-5---5-9-7---5-7-7---7-x-5---7-5--5--5-4--3--5-|
 7-7---7-x-3---7-3-3---3-7-5---3-7-7---7-x-3---7-3--5--3-2--0--5-|
 5-5---5-x-----5-----------------5-5---5-x-----5----3----------3-|


 A         C   A C       E D   C A         C   A G       A      
 ----------------------------------------------------------------|
 ----------------------------------------------------------------|
 ----------5-----5-5---5-9-7---5-----------5---------------------|
 7-7---7-x-5---7-5-5---5-9-7---5-7-7---7-x-5---7-5-------7-------|
 7-7---7-x-3---7-3-3---3-7-5---3-7-7---7-x-3---7-5-------7-------|
 5-5---5-x-----5-----------------5-5---5-x-----5-3--0-30-5-------|



 MAIN PART TWICE MORE.



 OUTRO 1:

 A               G               F               G
 ----------------------------------------------------------------|
 ----------------------------------------------------------------|
 ----------------------------------------------------------------|
 7---------------5---------------3---------------5---------------|
 7---------------5---------------3---------------5---------------|
 5---------------3---------------1---------------3---------------|


 A               G               F               -
 ----------------------------------------------------------------|
 ----------------------------------------------------------------|
 ----------------------------------------------------------------|
 7---------------5---------------3---------------2/3-3-3-3/5-5-5-|
 7---------------5---------------3---------------3/5-5-5-5/7-7-7-|
 5---------------3---------------1-------------------------------|


 A               G               F               G
 ----------------------------------------------------------------|
 ----------------------------------------------------------------|
 ----------------------------------------------------------------|
 x-7---7---7---7-x-5---5---5---5-x-3---3---3---3-x-5---5---5---5-|
 x-7---7---7---7-x-5---5---5---5-x-3---3---3---3-x-5---5---5---5-|
 x-5---5---5---5-x-3---3---3---3-x-1---1---1---1-x-3---3---3---3-|


 A               G               F               E
 ----------------------------------------------------------------|
 ----------------------------------------------------------------|
 ----------------------------------------------------------------|
 x-7---7---7---7-x-5---5---5---5-x-3---3---3---3-2-x-------------|
 x-7---7---7---7-x-5---5---5---5-x-3---3---3---3-2-x-------------|
 x-5---5---5---5-x-3---3---3---3-x-1---1---1---1-0-x-------------|


 A               C               D               E
 ----------------------------------------------------------------|
 ----------------------------------------------------------------|
 ----------------5-5---5-5-5---5-7-7---7-7-7---7-9-9---9-9-9---9-|
 7-7---7-7-7---7-5-5---5-5-5---5-7-7---7-7-7---7-9-9---9-9-9---9-|
 7-7---7-7-7---7-3-3---3-3-3---3-5-5---5-5-5---5-7-7---7-7-7---7-|
 5-5---5-5-5---5-------------------------------------------------|

 chords as above)
 A               C               D               E
 ----------------------------------------------------------------|
 ----------------------------------------------------------------|
 2-2---2-2-2---2-------------------------------------------------|
 ----------------2-2---2-2-2---2-3-3---3-3-3---3-2---------------|
 ----------------------------------------------------------------|
 ----------------------------------------------------------------|


 4 TIMES THE FIRST LINE OF SOMETHING.




 



                                    LAZY     
 






 INTRO:

 ----------|
 ----------|
 ----------|
 ----------|
 0-5-7-9-x-|
 ----------|

 MAIN PART:

 C               B               E               D
 ----------------------------------------------------------------|
 ----------------------------------------------------------------|
 5---------------4-------------------------------7---------------|
 5---------------4---------------2---------------7---------------|
 3---------------2---------------2---------------5---------------|
 --------------------------------0-------------------------------|


 G               B            
 ---------------------------------|
 ---------------------------------|
 12--------------16--16--16--x----|
 12--------------16--16--16--x----|
 10--------------14--14--14--x----|
 ---------------------------------|


 E               D               C               B
 ----------------------------------------------------------------|
 ----------------------------------------------------------------|
 9---------------7---------------5---------------4---------------|
 9---------------7---------------5---------------4---------------|
 7---------------5---------------3---------------2---------------|
 ----------------------------------------------------------------|


 G               D               C               B
 ----------------------------------------------------------------|
 ----------------------------------------------------------------|
 ----------------7---------------5---------------4---------------|
 5---------------7---------------5---------------4---------------|
 5---------------5---------------3---------------2---------------|
 3---------------------------------------------------------------|

 (mute with right hand)
 E               C               D               C
 --------------------------------------------------------|
 --------------------------------------------------------|
 ----------------5---5---5---5---7---7---7---7---4---4---|
 2---2---2---2---5---5---5---5---7---7---7---7---4---4---|
 2---2---2---2---3---3---3---3---5---5---5---5---3---3---|
 0---0---0---0-------------------------------------------|


 E               C               D               C
 --------------------------------------------------------|
 --------------------------------------------------------|
 ----------------5---5---5---5---7---7---7---7---4---4---|
 2---2---2---2---5---5---5---5---7---7---7---7---4---4---|
 2---2---2---2---3---3---3---3---5---5---5---5---3---3---|
 0---0---0---0-------------------------------------------|


 E               C               D             C
 --------------------------------------------------------|
 --------------------------------------------------------|
 ----------------5---5---5---5---7---7---7---7-4-x---4---|
 2---2---2---2---5---5---5---5---7---7---7---7-4-x---4---|
 2---2---2---2---3---3---3---3---5---5---5---5-3-x---3---|
 0---0---0---0-------------------------------------------|


 E               D               A               C       B
 ----------------------------------------------------------------|
 ----------------------------------------------------------------|
 ----------------7-------------------------------5-------4-------|
 2---------------7---------------7---------------5-------4-------|
 2---------------5---------------7---------------3-------2-------|
 0-------------------------------5-------------------------------|


 E               D               A               G  B  D 
 ----------------------------------------------------------------|
 ----------------------------------------------------------------|
 9---------------7----------------------------------4--7---------|
 9---------------7---------------7---------------5--4--7---------|
 7---------------5---------------7---------------5--2--5---7-9---|
 --------------------------------5---------------3---------------|



 MAIN PART ONCE MORE.


 SOMETHING:

 (three times:)
 E               D               A               C       B
 ----------------------------------------------------------------|
 ----------------------------------------------------------------|
 9---9---9-9-9-7-----7---7---7-------------------5-------4-------|
 9---9---9-9-9-7-----7---7---7---7---7---7---7---5-------4-------|
 7---7---7-7-7-5-----5---5---5---7---7---7---7---3-------2-------|
 --------------------------------5---5---5---5-------------------|

 (the fourth time:)
 E               D               A              
 ------------------------------------------------|
 ------------------------------------------------|
 9---9---9-9-9-7-x-4-2-0-------2---------0-------|
 9---9---9-9-9-7-x-------4-2-0-2---2-0-----2-----|
 7---7---7-7-7-5-x-------------0-------3-----3-x-|
 ------------------------------------------------|


 THEN THE MAIN PART AGAIN, CUT AFTER FIRST LINE OF MUTING.




                                KNOW IT ALL



 INTRO:

 B               D#              E               F#
 ----------------------------------------------------------------|
 ----------------------------------------------------------------|
 ----------------8---8-8---8-8---9---9-9---9-9-9-----------------|
 9---9-9---9-9---8---8-8---8-8---9---9-9---9-9-9---8-9---8-9-9-8-|
 9---9-9---9-9---6---6-6---6-6---7---7-7---7-7-7-9-----9---------|
 7---7-7---7-7---------------------------------------------------|


 B               D#              E               F#
 -----------------------------------------------------------------|
 -----------------------------------------------------------------|
 ----------------8---8-8---8-8---9---9-9---9-9-9------------------|
 9---9-9---9-9---8---8-8---8-8---9---9-9---9-9-9---8-9---8-9-11-8-|
 9---9-9---9-9---6---6-6---6-6---7---7-7---7-7-7-9-----9----------|
 7---7-7---7-7----------------------------------------------------|


 B               D#              E               F#
 ----------------------------------------------------------------|
 ----------------------------------------------------------------|
 ----------------8-----6-----8---9---9-9---9-9-9---6-8---6-8-8-6-|
 9---9-9---9-9---8-----6-----8---9---9-9---9-9-9-9-8-9---8-9-9-8-|
 9---9-9---9-9---6-----4-----6---7---7-7---7-7-7-9-----9---------|
 7---7-7---7-7---------------------------------------------------|


 B               D#              E               F#
 ----------------------------------------------------------------|
 ----------------------------------------------------------------|
 ----------------8---8-8---8-8---9---9-9---9-9-9-----------------|
 9---9-9---9-9---8---8-8---8-8---9---9-9---9-9-9---8-9---8-9-9-8-|
 9---9-9---9-9---6---6-6---6-6---7---7-7---7-7-7-9-----9---------|
 7---7-7---7-7---------------------------------------------------|



 VERSE 1:

 (mute the faster-ones)
 E               F#              E               F#
 ----------------------------------------------------------------|
 ----------------------------------------------------------------|
 9---9-9-9-9-9-9-----------------9---9-9-9-9-9-9-----------------|
 9---9-9-9-9-9-9---8-9---8-9-9-8-9---9-9-9-9-9-9---8-9---8-9-9-8-|
 7---7-7-7-7-7-7-9-----9---------7---7-7-7-7-7-7-9-----9---------|
 ----------------------------------------------------------------|


 E               F#              B               G#
 ----------------------------------------------------------------|
 ----------------------------------------------------------------|
 9---9-9-9-9-9-9-----------------16----16----16--13----13----13--|
 9---9-9-9-9-9-9---8-9---8-9-9-8-16----16----16--13----13----13--|
 7---7-7-7-7-7-7-9-----9---------14----14----14--11----11----11--|
 ----------------------------------------------------------------|


 E               F#              E               F#
 ----------------------------------------------------------------|
 ----------------------------------------------------------------|
 9---9-9-9-9-9-9-----------------9---9-9-9-9-9-9-----------------|
 9---9-9-9-9-9-9---8-9---8-9-9-8-9---9-9-9-9-9-9---8-9---8-9-9-8-|
 7---7-7-7-7-7-7-9-----9---------7---7-7-7-7-7-7-9-----9---------|
 ----------------------------------------------------------------|


 E               F#              B               G#
 ----------------------------------------------------------------|
 ----------------------------------------------------------------|
 9---9-9-9-9-9-9-----------------4---4-4---4-4-------------------|
 9---9-9-9-9-9-9---8-9---8-9-9-8-4---4-4---4-4---9\8-8\6-6\3-3/4-|
 7---7-7-7-7-7-7-9-----9---------2---2-2---2-2---7\6-6\4-4\1-1/2-|
 ----------------------------------------------------------------|



 VERSE 1 GOES ON:

 (play open)
 B               F#              G#              D#
 ----------------------------------------------------------------|
 ----------------------------------------------------------------|
 4---4-4---4-4-----------------------------------8---8-8---8-8-8-|
 4---4-4---4-4---4---4-4---4-4-4-6---6-6---6-6---8---8-8---8-8-8-|
 2---2-2---2-2---4---4-4---4-4-4-6---6-6---6-6---6---6-6---6-6-6-|
 ----------------2---2-2---2-2-2-4---4-4---4-4-------------------|


 E               B               F#  (muted)     -
 ----------------------------------------------------------------|
 ----------------------------------------------------------------|
 9-----9-----9---------------------------------------8\6-6\3-3/4-|
 9-----9-----9---9-----9-----9---4---4-4-4-4-4-4-4-4-9\8-8\4-4---|
 7-----7-----7---9-----9-----9---4---4-4-4-4-4-4-4-4-------------|
 ----------------7-----7-----7---2---2-2-2-2-2-2-2-2-------------|


 B               F#              G#              D#
 ----------------------------------------------------------------|
 ----------------------------------------------------------------|
 4---4-4-4-4-4-----------------------------------8---8-8---8-8-8-|
 ----------------4---4-4---4-4-4-6---6-6---6-6---8---8-8---8-8-8-|
 ----------------4---4-4---4-4-4-6---6-6---6-6---6---6-6---6-6-6-|
 ----------------2---2-2---2-2-2-4---4-4---4-4-------------------|


 E               B               E               F#
 ----------------------------------------------------------------|
 ----------------------------------------------------------------|
 9---9---9-9-9-------------------9---9---9-9-9-11----11--11--11--|
 9---9---9-9-9-9-----9---9-9-9---9---9---9-9-9-11----11--11--11--|
 7---7---7-7-7-9-----9---9-9-9---7---7---7-7-7-9-----9---9---9---|
 --------------7-----7---7-7-7-----------------------------------|



 CHORUS 1:

 B               D#              E              
 ------------------------------------------------|
 ------------------------------------------------|
 ----------------8---8-8-8-8-8-8-9---9---9-9-9---|
 9---9---9-9-9-9-8---8-8-8-8-8-8-9---9---9-9-9---|
 9---9---9-9-9-9-6---6-6-6-6-6-6-7---7---7-7-7---|
 7---7---7-7-7-7---------------------------------|


 B               D#              E         F#   
 ------------------------------------------------|
 ------------------------------------------------|
 ------------------------------------------6-----|
 9---9-9-9-9-9-9-8---8-8-8-8-8-8-9---9-9-9-4-----|
 9---9---9---9---6---6---6-------7---7-7-7-4-----|
 7---7---7---7-----------------------------2-----|


 B               C#              D#              E
 ----------------------------------------------------------------|
 ----------------------------------------------------------------|
 ------------------------------------------------9-----9-----9---|
 9---9-9-9-9-9-9-11--11--111111--8---8-8-8-8-8---9-----9-----9---|
 9-------9-------11--------------6---6---6-------7-----7-----7---|
 7-------7-------9-----------------------------------------------|



 VERSE 2, practically the same as VERSE 1.



 CHORUS 2, like CHORUS 1 with one exeption:

 (last line of chorus 2):
 B               C#              D#              E
 -----------------------------------------------------------------------------
 -----------------------------------------------------------------------------
 ------------------------------------------------9-----9-----9-----9----9---9-
 9---9-9-9-9-9-9-11--11--111111--8---8-8-8-8-8---9-----9-----9-----9----9---9-
 9-------9-------11--------------6---6---6-------7-----7-----7-----7----7---7-
 7-------7-------9------------------------------------------------------------


 OUTRO:


 B               D#              E               F#
 ----------------------------------------------------------------|
 ----------------------------------------------------------------|
 ----------------8---8-8---8-8---9---9-9---9-9-9-----------------|
 9---9-9---9-9---8---8-8---8-8---9---9-9---9-9-9---8-9---8-9-9-8-|
 9---9-9---9-9---6---6-6---6-6---7---7-7---7-7-7-9-----9---------|
 7---7-7---7-7---------------------------------------------------|


 B               D#              E               F#
 -----------------------------------------------------------------|
 -----------------------------------------------------------------|
 ----------------8---8-8---8-8---9---9-9---9-9-9------------------|
 9---9-9---9-9---8---8-8---8-8---9---9-9---9-9-9---8-9---8-9-10-8-|
 9---9-9---9-9---6---6-6---6-6---7---7-7---7-7-7-9-----9----------|
 7---7-7---7-7----------------------------------------------------|


 B               D#              E               F#
 ----------------------------------------------------------------|
 ----------------------------------------------------------------|
 ----------------8-----6-----8---9---9-9---9-9-9---6-8---6-8-8-6-|
 9---9-9---9-9---8-----6-----8---9---9-9---9-9-9-9-8-9---8-9-9-8-|
 9---9-9---9-9---6-----4-----6---7---7-7---7-7-7-9-----9---------|
 7---7-7---7-7---------------------------------------------------|


 B               D#              E              
 ------------------------------------------------|
 ------------------------------------------------|
 ----------------8-----6-----8---9---9-9---9-9-9-|
 9---9-9---9-9---8-----6-----8---9---9-9---9-9-9-|
 9---9-9---9-9---6-----4-----6---7---7-7---7-7-7-|
 7---7-7---7-7-----------------------------------|


 B                               B
 ----------------------------------------------------------------|
 ----------------------------------------------------------------|
 8-----6-----4-----3-----1---3---4-------------------------------|
 9-----8-----6-----4-----2---4---4-------------------------------|
 --------------------------------2-------------------------------|
 ----------------------------------------------------------------|


                            STOCKIN' THE NEIGHBORS
 


 INTRO:


 GbG B C                         B
 ------------|
 ------------|
 ----4-5-----|
 4-5-4-5-----|
 4-5-2-3-----|
 2-3---------|


 E
 ----------------------------------------------------------------|
 ----------------------------------------------------------------|
 ----------------------------------------------------------------|
 2-2---2-4-4---4-5-5---5-7-7---7-9-9--9-7-7---7-5-5---5-4-4---4--|
 ----------------------------------------------------------------|
 ----------------------------------------------------------------|


 ----------------------------------------------------------------|
 ----------------------------------------------------------------|
 --------------------------------------------------------4-4---4-|
 2-2---2-4-4---4-5-5---5-7-7---7-9-9---9-7-7---7-5-5---5-4-4---4-|
 --------5-5---5-3-3---3-5-5---5-7-7---7-5-5---5-3-3---3-2-2---2-|
 ----------------------------------------------------------------|



 VERSE 1:


 E     D E     D E     D E     D E     D E     D E             C
 ----------------------------------------------------------------|
 ----------------------------------------------------------------|
 9-9---7-9-9---7-9-9---7-9-9---7-9-9---7-9-9---7-9-9-----------5-|
 9-9---7-9-9---7-9-9---7-9-9---7-9-9---7-9-9---7-9-9-----------5-|
 7-7---7-7-7---7-7-7---7-7-7---7-7-7---7-7-7---7-7-7-----0-2-3-3-|
 ------------------------------------------------------3---------|


 C               D               E     D E     D E             E
 ----------------------------------------------------------------|
 ----------------------------------------------------------------|
 5-------------7-----7---------9---9---7-9-9---7-9-9-------------|
 5-------5-4---7-----7---5-----9---9---7-9-9---7-9-9-----------2-|
 3-----------7-5-----5-----7-5-7---7---7-7-7---7-7-7---0-1-0---2-|
 ------------------------------------------------------------3-0-|


 E               G               A               B
 ----------------------------------------------------------------|
 ----------------------------------------------------------------|
 --------------------------------2---------------4---------------|
 2---------------5---------------2---------------4---------------|
 2---------------5---------------0---------------2---------------|
 0---------------3-----------------------------------------------|


 C               G               A                
 -----------------------------------------------------------12-x-|
 ------------------------------------------------9-10-11-12-12-x-|
 5---------------------------------------7-8-9-12-----------13-x-|
 5---------------5-----------------7-8-9-------------------------|
 3---------------5------------10---------------------------------|
 ----------------3-----------------------------------------------|


 E                               A              A                -
 ------------------------------------------------------------------------|
 ------------------------------------------------------------------------|
 ----------------------------------------------2-----2-------------------|
 2-----------------------x-2-x-5-----5---x-x-x-2-----2-----------x-------|
 2-----------------------x-2-x-5-----5---x-x-x-0-----0---1-0-----x-------|
 0-----------------------0-0-0-3-----3---3-3-3---------------3-0-x-------|


 E                               C               A             E 
 ----------------------------------------------------------------|
 ----------------------------------------------------------------|
 --------------------------------x-x-5---5---5---2---2-----------|
 2-------------------------------x-x-5---5---5---2---2---------2-|
 2-------------------------------3-3-3---3---3---0---0---3-2---2-|
 0-----------------------------------------------------------3-0-|


 E                               A               B               -
 ------------------------------------------------------------------------|
 --------5-------4-------3-----------------------------------------------|
 ----------------------------------------------2-----2---3-2-------------|
 2-----------------------------x-5---5---x-x-x-2-----2---x-x-5-2-x-------|
 2-----------------------------x-5---5---x-x-x-0-----0---1-0-x-x-x-------|
 0-----------------------------0-3---3---3-3-3---------------3-0-x-------|


 E                               C               A              
 ----------------------------------------------------------------|
 ----------------------------------------------------------------|
 --------------------------------5-555-5-----5---4-444-4-----4---|
 2-------------------------------5-555-5-----5---4-444-4-----4---|
 2-------------------------------3-333-3-----3---2-222-2-----2---|
 0---------------------------------------------------------------|



 SOME MIDDLE-RIFF:


 E
 ------------------------------------------------------x-x-x---x-|
 ------------------------------------------------------x-x-x---x-|
 9-x---------------------------------------------------x-x-x---x-|
 9-x-------------------------------------------------------------|
 7-x-------------------------------------------------------------|
 ----------------------------------------------------------------|


 ------------------------------------------------|
 ------------------------------------------------|
 ------------------------------------------------|
 2-2---2-4-4---4-5-5---5-7-7---7-9-9--9-7-7---7--|
 ------------------------------------------------|
 ------------------------------------------------|



 VERSE 2 just like VERSE 1 with one exeption:


 line 4:

 C               G               E               
 ----------------------------------------------------------------|
 ----------------------------------------------------------------|
 5-------------------------------9-9---7-9-9---7-9---------------|
 5---------------5---------------9-9---7-9-9---7-9---------------|
 3---------------5---------------7-7---7-7-7---7-7---------------|
 ----------------3-----------------------------------------------|


 PARTY-SCENARIO IN 3/3 (many times or something):


 (beat): I           I           I           I
 (in 3)  ------------------------------------------------|
         ------------------------------------------------|
         ------------------------------------------------|
         ------------------------------------------------|
         2---2-2-----------------2---2-2---2-------------|
   3~~~~~0---0-0---3-x---3-------0---0-0---0-3~~~~~------|


         (finally sometime):
 (beat): I           I           I           I   I   I           
 (in 3)  ------------------------------------------------|
         ------------------------------------------------|
         ----------5-----3-----3-------------------------|
         ------------------4-----4---3-2---0-2-----------|
         ----2-2-----------------------------2-----------|
         ----0-0-----------------------------0-----------|

 (beat): I               I               I               I                 

 (in 4)  ----------------------------------------------------------------|
         ----------------------------------------------------------------|
         ----------------------3-----2---0-------------------------------|
         ------------------------------------2---0-----------------------|
         --------------------------------------------2---0---------------|
         ----------------------------------------------------3-----------|



 SOLO CHORDS:


 E               G               A               B
 ----------------------------------------------------------------|
 ----------------------------------------------------------------|
 --------------------------------2---------------4---------------|
 2---------------5---------------2---------------4---------------|
 2---------------5---------------0---------------2---------------|
 0---------------3-----------------------------------------------|


 C               G               E               
 ----------------------------------------------------------------|
 ----------------------------------------------------------------|
 5-------------------------------9-9---9-9-9---9-9-9-x-----------|
 5---------------5---------------9-9---9-9-9---9-9-9-x-----------|
 3---------------5---------------7-7---7-7-7---7-7-7-x-----------|
 ----------------3-----------------------------------------------|



 VERSE 2 just like VERSE 1.


                                GIVE IT BACK


 INTRO BASSLINE:

 --------2-------------0-----------------2-------------5---------|
 ----2-------2-----2-------2---------2-------2-----2-------2-----|
 0-------------3-------------3---0-------------3-------------3---|
 ----------------------------------------------------------------|


 INTRO (two times):

 Am              Am7             Fmaj7           Am7
 ----------------0---------------0-------------------------------|
 1---------------1---------------1---------------1---------------|
 2---------------0---------------2---------------2---------------|
 2---------------2---------------3---------------2---------------|
 0---------------0---------------0---------------0---------------|
 ----------------------------------------------------------------|



 MAIN RIFF (four times):

 A               C               G               F           C
 ----------------------------------------------------------------|
 ----------------------------------------------------------------|
 2---2---2---2-5-----5---5---5-------------------------------5---|
 2---2---2---2-5-----5---5---5---5---5---5-5-x-3-----x-x-x-x-5---|
 0---0---0---0-3-----3---3---3---5---5---5-5-x-3-----x-x-x-x-3---|
 --------------------------------3---3---3-3-x-1-----1-1-1-1-----|



 "YOU HATE THEM" -PART:

 (two times):
 A               C               A               F           
 ----------------------------------------------------------------|
 ----------------------------------------------------------------|
 2---2---2---2-5-----5---5---5---2---2---2---2-------------------|
 2---2---2---2-5-----5---5---5---2---2---2---2-3-----3---3---3-3-|
 0---0---0---0-3-----3---3---3---0---0---0---0-3-----3---3---3-3-|
 ----------------------------------------------1-----1---1---1-1-|


 (you hate them -riff):
 E                               E
 ----------------------------------------------------------------|
 ----------------------------------------------------------------|
 --------------0-------------------------------------------------|
 --------0-1-2-----0-2-0-------2-----2---x-x-x-2-----2---2-------|
 0---3-0-----------------3-0---0-----0---x-x-x-0-----0---0-------|
 ----------------------------3-----------------------------3-----|


 E                               E
 ----------------------------------------------------------------|
 ------------------------3-4-5-----------------------------------|
 --------------0-----2-0-----------------------------------------|
 --------0-1-2-----2-----------2-----2---x-x-x-2-----2---2-------|
 0---3-0-----------------------0-----0---x-x-x-0-----0---0-------|
 ----------------------------------------------------------3-----|


 (two times):
 E                               E
 ----------------------------------------------------------------|
 --------------------------------------------------------3-4-5---|
 --------------0-------------------------------0-----2-x---------|
 --------0-1-2-----0-2-0-----------------0-1-2-----2-------------|
 0---3-0-----------------3-0---0---0-3-0-------------------------|
 ----------------------------3-----------------------------------|




 VERSE 1:

 A               F               G               D           E
 ----------------------------------------------------------------|
 ----------------------------------------------------------------|
 2---x---x---2---------------------------------7-----x---9---x---|
 2---x---x---2-3-----x---x---x-5-----x---x---x-7-----x---9---x---|
 0---x---x---0-3-----x---x---x-5-----x---x---x-5-----5---7---7---|
 --------------1-----x---x---x-3-----x---x---x-------------------|


 A               F               G               E           
 ----------------------------------------------------------------|
 ----------------------------------------------------------------|
 2---x---x---2---------------------------------------------------|
 2---x---x---2-3-----x---x---x-5-----x---x---x-2---3-0-2-0-------|
 0---x---x---0-3-----x---x---x-5-----x---x---x-------------3-----|
 --------------1-----x---x---x-3-----x---x---x---------------5---|


 A               F               G               D           E
 ----------------------------------------------------------------|
 ----------------------------------------------------------------|
 2---2---2---2---------------------------------7-----7---9---9---|
 2---2---2---2-3-----3---3---3-5-----5---5---5-7-----7---9---9---|
 0---0---0---0-3-----3---3---3-5-----5---5---5-5-----5---7---7---|
 --------------1-----1---1---1-3-----3---3---3-------------------|


 A               F               G               C       G   A
 ----------------------------------------------------------------|
 ----------------------------------------------------------------|
 2---2---2---2-----------------------------------5-----------2---|
 2---2---2---2-3-----3---3---3-5-----5---5---5---5-----5-----2---|
 0---0---0---0-3-----3---3---3-5-----5---5---5---3-----5-----0---|
 --------------1-----1---1---1-3-----3---3---3---------3---------|



 CHORUS:

 A                               F                           
 ----------------------------------------------------------------|
 ----------------------------------------------------------------|
 ----2---------2-----2-------------------------------------------|
 ----2---x-x-x-2-----2-----------3---3---x-x-x-3-----3-----------|
 ----0---x-x-x-0-----0---3-2-0---3---3---x-x-x-3-----3---3---2---|
 ------------------------------3-1---1---1-1-1-1-----1-----------|


 G       C       G       D                                   
 ----------------------------------------------------------------|
 ----------------------------------------------------------------|
 --------5-------------7-----------------------0-----------------|
 5---5---5---x-5-----5-7---5-------------0-1-2-----0-2-0---------|
 5---5---3---x-5-----5-5---5---0-----3-0-----------------3-0-----|
 3---3-------3-3-----3-----3---------------------------------3---|

 A                               F                           
 ----------------------------------------------------------------|
 ----------------------------------------------------------------|
 ----2---------2-----2-------------------------------------------|
 ----2---x-x-x-2-----2-----------3---3---x-x-x-3-----3-----------|
 ----0---x-x-x-0-----0---3-2-0---3---3---x-x-x-3-----3---3---2---|
 ------------------------------3-1---1---1-1-1-1-----1-----------|


 G                               A               G       C   
 ----------------------------------------------------------------|
 ----------------------------------------------------------------|
 --------------------------------------------2---x---------5-----|
 5---x-x-x-x-x-x-x-x-x-x-x-x-x-x-------------2---x-5-----x-5-----|
 5---x-x-x-x-x-x-x-x-x-x-x-x-x-x-0---3-0-3-0-0---x-5-----x-3-----|
 3---3-3-3-3-3-3-3-3-3-3-3-3-3-3-------------------3-----x-------|



 VERSE 2 like VERSE 1 but:

 (fourth line):
 A               F               G 
 ----------------------------------------------------------------|
 ----------------------------------------------------------------|
 2---2---2---2---------------------------------------------------|
 2---2---2---2-3-----3---3---3-5-----5---5---5-5-x---------------|
 0---0---0---0-3-----3---3---3-5-----5---5---5-5-x---------------|
 --------------1-----1---1---1-3-----3---3---3-3-x---------------|



 CHORUS.


 INTRO BASSLINE.


 "YOU HATE THEM" -PART:

 (two times):
 A               C               A               F           
 ----------------------------------------------------------------|
 ----------------------------------------------------------------|
 2---2---2---2-5-----5---5---5---2---2---2---2-------------------|
 2---2---2---2-5-----5---5---5---2---2---2---2-3-----3---3---3-3-|
 0---0---0---0-3-----3---3---3---0---0---0---0-3-----3---3---3-3-|
 ----------------------------------------------1-----1---1---1-1-|


 (two times):
 E                               E
 --------------------------------------------------------------0-|
 --------------------------------------------------------3-4-5---|
 --------------0-------------------------------0-----2-x---------|
 --------0-1-2-----0-2-0-----------------0-1-2-----2-------------|
 0---3-0-----------------3-0---0---0-3-0-------------------------|
 ----------------------------3-----------------------------------|


 E                               
 ----------------------------------------|
 ----4-3-1-3-1---1-----------------------|
 --------------2-----2-0---0-1-2-x-------|
 ------------------------2---------------|
 ----------------------------------------|
 ----------------------------------------|

  Right now is 31.12 1994 and my wrist-watch goes at 11.54 pm. I think I'll
show my nose outside for a while and launch (yea right :) my 12 Roman
candles. A happy 1995 to everyone!



                                    RUST
 

 INTRO:


 (fade in and then four times):
 A               C               A               C
 ----------------------------------------------------------------|
 ----------------------------------------------------------------|
 2---2---2-------5---5---5-------2---2---2-------5---5---5-------|
 2---2---2-------5---5---5-------2---2---2-------5---5---5-------|
 0---0---0-------3---3---3-------0---0---0-------3---3---3-------|
 ----------------------------------------------------------------|


 A                               F               
 ----------------------------------------------------------------|
 ----------------------------------------------------------------|
 2---------------------------------------------------------------|
 2-----------------------------------------------0---------------|
 0---------------------------------------0---3-------3---2-------|
 --------------------------------x---1-----------------------3---|



 MAIN RIFF:

 (four times):
 A               C               F               -
 ----------------------------------------------------------------|
 ----------------------------------------------------------------|
 2---2---2---2-------5---5---5-----------------------------------|
 2---2---2---2-------5---5---5-------------------0---------------|
 0---0---0---0---x---3---3---3---x-------0---3-------3---2-------|
 ------------------------------------1-----------------------3---|



 VERSE 1:

 A               C               F               F
 ----------------------------------------------------------------|
 ----------------------------------------------------------------|
 2---2---2---2-------5---5---5-----------------------------------|
 2---2---2---2-------5---5---5-------3---3---3---3-------3-------|
 0---0---0---0---x---3---3---3---x---3---3---3---3-------3-------|
 ------------------------------------1---1---1---1-------1-------|


 A               G               F               E       
 ----------------------------------------------------------------|
 ----------------------------------------------------------------|
 2---2---2---2---------------------------------------------------|
 2---2---2---2-------5---5---5-------3---3---3---x-2---2-2-------|
 0---0---0---0---x---5---5---5---x---3---3---3---x-2---2-2-------|
 --------------------3---3---3-------1---1---1---0-0---0-0-------|


 A               C               F               F
 ----------------------------------------------------------------|
 ----------------------------------------------------------------|
 2---2---2---2-------5---5---5-----------------------------------|
 2---2---2---2-------5---5---5-------3---3---3---3-------3-------|
 0---0---0---0---x---3---3---3---x---3---3---3---3-------3-------|
 ------------------------------------1---1---1---1-------1-------|


 A                               C                       
 ----------------------------------------------------------------|
 ----------------------------------------------------------------|
 2---2---2---2-------------------5-------------------------------|
 2---2---2---2-------------------5-------------------------------|
 0---0---0---0---x---------------3-------------------------------|
 ----------------------------------------------------------------|


 (three times):
 A               C               F               E
 ----------------------------------------------------------------|
 ----------------------------------------------------------------|
 2---2---2---2-------5---5---5-----------------------------------|
 2---2---2---2-------5---5---5-------3---3---3-----------0-------|
 0---0---0---0---x---3---3---3---x---3---3---3-------3-----------|
 ------------------------------------1---1---1---0---------------|


 (fourth time):
 A               G               F               E
 ----------------------------------------------------------------|
 ----------------------------------------------------------------|
 2---2---2---2---------------------------------------------------|
 2---2---2---2-------5---5---5-------3---3---3-------------------|
 0---0---0---0---x---5---5---5-------3---3---3---x-------5-------|
 --------------------3---3---3---1---1---1---1---1---0---3-------|



 BRIDGE TO CHORUS:

 F                               A                
 ----------------------------------------------------------------|
 ----------------------------------------------------------------|
 --------------------------------2-------------------------------|
 3-------------------------------2-------------------------------|
 3-------------------------------0-------------------------------|
 1---------------------------------------------------------------|


 F                               A               G
 ----------------------------------------------------------------|
 ----------------------------------------------------------------|
 --------------------------------2-------------------------------|
 3-------------------------------2---------------5---------------|
 3-------------------------------0---------------5---------------|
 1-----------------------------------------------3---------------|


 D                               C                
 ----------------------------------------------------------------|
 ----------------------------------------------------------------|
 7-------------------------------5-------------------------------|
 7-------------------------------5-------------------------------|
 5-------------------------------3-------------------------------|
 ----------------------------------------------------------------|


 E                               A                
 ----------------------------------------------------------------|
 ----------------------------------------------------------------|
 ----------------------------------------------------------------|
 2---------------------------5-------5---5---5---5---5---5-------|
 2-----------------------------------------------------------0---|
 0---------------------------------------------------------------|



 CHORUS 1:

 A               C               F               E
 ----------------------------------------------------------------|
 ----------------------------------------------------------------|
 2---2---2---2-------5---5---5-------10--10--10--9---9---9-------|
 2---2---2---2-------5---5---5-------10--10--10--9---9---9-------|
 0---0---0---0---x---3---3---3---x---8---8---8---7---7---7---x---|
 ----------------------------------------------------------------|


 A               C               F               E
 ----------------------------------------------------------------|
 ----------------------------------------------------------------|
 2---2---2---2-------5---5---5-------10--10--10--12--12--12------|
 2---2---2---2-------5---5---5-------10--10--10--12--12--12------|
 0---0---0---0---x---3---3---3---x---8---8---8---10--10--10--x---|
 ----------------------------------------------------------------|


 A               C               F               E
 ----------------------------------------------------------------|
 ----------------------------------------------------------------|
 2---2---2---2-------5---5---5-------10--10--10--9---9---9-------|
 2---2---2---2-------5---5---5-------10--10--10--9---9---9-------|
 0---0---0---0---x---3---3---3---x---8---8---8---7---7---7---x---|
 ----------------------------------------------------------------|


 C               C               F               E
 ----------------------------------------------------------------|
 ----------------------------------------------------------------|
 5-----5-----5-----------5-------9-----9-----9---------------9---|
 5-----5-----5-------x---5-----------------------------------9---|
 3-----3-----3-------3---3-------7-----7-----7---------------7---|
 ----------------------------------------------------------------|



 VERSE 2 like VERSE 2, but BRIGDE two times.

 SOMETHING 1:

 (three times):
 A               C               G               A
 ----------------------------------------------------------------|
 ----------------------------------------------------------------|
 14--14--14--14------17--17--17------12--12--12--12/-14--14------|
 14--14--14--14------17--17--17------12--12--12--12/-14--14------|
 12--12--12--12--x---15--15--15--x---10--10--10--10/-12--12--x---|
 ----------------------------------------------------------------|

 (the fourth time):
 F                               G            
 ----------------------------------------------------------------|
 ----------------------------------------------------------------|
 10------------------------------12------------------------------|
 10------------------------------12------------------------------|
 8-------------------------------10------------------------------|
 ----------------------------------------------------------------|


 A               C                               
 -------------------------------------------------|
 -------------------------------------------------|
 14--14--14--14------17--17--17-------------------|
 14--14--14--14------17--17--17-------------------|
 12--12--12--12--x---15--15--15--x----------------|
 -------------------------------------------------|



 OUTRO (both lines three times):

 F                               C                
 ----------------------------------------------------------------|
 ----------------------------------------------------------------|
 ----------------------------5-----------------------------------|
 3-------x---x---x---x---x---5-----------------------------------|
 3-------x---x---x---x---x---3-----------------------------------|
 1-------1---1---1---1---1---------------------------------------|


 A                               G               C       B
 ----------------------------------------------------------------|
 ----------------------------------------------------------------|
 2-------x---x---x---x---x-----------------------5-------4-------|
 2-------x---x---x---x---x---5-------------------5-------4-------|
 0-------0---0---0---0---0---5-------------------3-------2-------|
 ----------------------------3-----------------------------------|


 (the fourth time):
 F                               D                
 ----------------------------------------------------------------|
 ----------------------------------------------------------------|
 ----------------------------7-----------------------------------|
 3-------x---x---x---x---x---7-----------------------------------|
 3-------x---x---x---x---x---5-----------------------------------|
 1-------1---1---1---1---1---------------------------------------|


 E                             
 ----------------------------------------------------------------|
 ----------------------------------------------------------------|
 9-------9-------9-------9-------9---9---9---9---9---9---9---9---|
 9-------9-------9-------9-------9---9---9---9---9---9---9---9---|
 7-------7-------7-------7-------7---7---7---7---7---7---7---7---|
 ----------------------------------------------------------------|


 F                               G                           
 ----------------------------------------------------------------|
 ----------------------------------------------------------------|
 10------10------10--10--10--10--12------12------12--12--12--12--|
 10------10------10--10--10--10--12------12------12--12--12--12--|
 8-------8-------8---8---8---8---10------10------10--10--10--10--|
 ----------------------------------------------------------------|



 OUTRO 2:

 C                               E
 ----------------------------------------------------------------|
 ----------------------------------------------------------------|
 5---5-------5---5-------5-------9---9---9---9---9---9---9---9---|
 5---5-------5---5-------5-------9---9---9---9---9---9---9---9---|
 3---3-------3---3-------3-------7---7---7---7---7---7---7---7---|
 ----------------------------------------------------------------|


 F                               G                           
 ----------------------------------------------------------------|
 ----------------------------------------------------------------|
 10------10------10--10--10--10--12------12------12--12--12--12--|
 10------10------10--10--10--10--12------12------12--12--12--12--|
 8-------8-------8---8---8---8---10------10------10--10--10--10--|
 ----------------------------------------------------------------|


 A                               E
 ----------------------------------------------------------------|
 ----------------------------------------------------------------|
 2---2-------2---2-------2---------------------------------------|
 2---2-------2---2-------2-------2---2-------2---2---2-------2---|
 0---0-------0---0-------0-------2---2-------2---2---2-------2---|
 --------------------------------0---0-------0---0---0-------0---|


 F                               G                           
 ----------------------------------------------------------------|
 ----------------------------------------------------------------|
 10------10------10--10--10--10--12------12------12--12--12--12--|
 10------10------10--10--10--10--12------12------12--12--12--12--|
 8-------8-------8---8---8---8---10------10------10--10--10--10--|
 ----------------------------------------------------------------|


 C                               E
 ----------------------------------------------------------------|
 ----------------------------------------------------------------|
 5---5-------5---5-------5-------9---9---9---9---9---9---9---9---|
 5---5-------5---5-------5-------9---9---9---9---9---9---9---9---|
 3---3-------3---3-------3-------7---7---7---7---7---7---7---7---|
 ----------------------------------------------------------------|


 F                               G                           
 ----------------------------------------------------------------|
 ----------------------------------------------------------------|
 10------10------10--10--10--10--12------12------12--12--12--12--|
 10------10------10--10--10--10--12------12------12--12--12--12--|
 8-------8-------8---8---8---8---10------10------10--10--10--10--|
 ----------------------------------------------------------------|


 A             
 ----------------------------------------------------------------|
 ----------------------------------------------------------------|
 2---------------------------------------------------------------|
 2---------------------------------------------------------------|
 0---------------------------------------------------------------|
 ----------------------------------------------------------------|


                                 GOIN' SOUTH

 INTRO (both lines two times):

 G                               D
 ----------------------------------------------------------------|
 ----------------------------------------------------------------|
 --------------------------------7---7-------7---7---7-------7---|
 5---5-------5---5---5-------5---7---7-------7---7---7-------7---|
 5---5-------5---5---5-------5---5---5-------5---5---5-------5---|
 3---3-------3---3---3-------3-----------------------------------|


 C               B               C
 ----------------------------------------------------------------|
 ----------------------------------------------------------------|
 x---5-------5---x---4-------4---x---5-------5---x---4-------4---|
 x---5-------5---x---4-------4---x---5-------5---x---4-------4---|
 3---3-------5---2---2-------2---3---3-------3---2---2-------2---|
 ----------------------------------------------------------------|



 VERSE 1 (all three lines two times):


 G                               G
 ----------------------------------------------------------------|
 ----------------------------------------------------------------|
 ----------------------------------------------------------------|
 5-5-5-------5---x---x---x---x-x-5-5-5-------5---x---x---x---x-x-|
 5-5-5-------5---x---x---x---x-x-5-5-5-------5---x---x---x---x-x-|
 3-3-3-------3---3---3---3---3-3-3-3-3-------3---3---3---3---3-3-|


 C                               C
 ----------------------------------------------------------------|
 ----------------------------------------------------------------|
 5-5-5-------5---x---x---x---x-x-5-5-5-------5---x---x---x---x-x-|
 5-5-5-------5---x---x---x---x-x-5-5-5-------5---x---x---x---x-x-|
 3-3-3-------3---3---3---3---3-3-3-3-3-------3---3---3---3---3-3-|
 ----------------------------------------------------------------|


 C               B               C
 ----------------------------------------------------------------|
 ----------------------------------------------------------------|
 x---5-------5---x---4-------4---x---5-------5---x---4-------4---|
 x---5-------5---x---4-------4---x---5-------5---x---4-------4---|
 3---3-------5---2---2-------2---3---3-------3---2---2-------2---|
 ----------------------------------------------------------------|


 (then go on)
 D                               D
 ----------------------------------------------------------------|
 ----------------------------------------------------------------|
 7-7-7-------7---7---7-------7-----------------------------------|
 7-7-7-------7---7---7-------7---7-----------9-----------7-------|
 5-5-5-------5---5---5-------5-----------------------------------|
 ----------------------------------------------------------------|



 CHORUS 1:

 G                               F#
 ----------------------------------------------------------------|
 ----------------------------------------------------------------|
 ----------------------------------------------------------------|
 12--12------12--12--12------12--12--12------12--12--12------12--|
 10--10------10--10--10------10--9---9-------9---9---9-------9---|
 ----------------------------------------------------------------|


 A                               G#
 ----------------------------------------------------------------|
 ----------------------------------------------------------------|
 ----------------------------------------------------------------|
 14--14------14--14--14------14--14--14------14--14--14------14--|
 12--12------12--12--12------12--11--11------11--11--11------11--|
 ----------------------------------------------------------------|


 G               F#              E               D
 ----------------------------------------------------------------|
 ----------------------------------------------------------------|
 ----------------------------------------------------------------|
 12--------------12--------------9---------------7---------------|
 10--------------9---------------7---------------5---------------|
 ----------------------------------------------------------------|


 C               B               C               G       start slide up
 ----------------------------------------------------------------|
 ----------------------------------------------------------------|
 ----------------------------------------------------------------|
 5---------------4---------------5---4/5-----4---5-------/-------|
 3---------------2---------------3---2/3-----2---5-------/-------|
 ------------------------------------------------3-------/-------|


 G           slide down
 ----------------|
 ----------------|
 12----12----\---|
 12----12----\---|
 10----10----\---|
 ----------------|



 VERSE 2 like VERSE 1 but at (then go on) stop at second D-chord.


 CHORUS 2:

 G                               F#
 ----------------------------------------------------------------|
 ----------------------------------------------------------------|
 ----------------------------------------------------------------|
 12--12------12--12--12------12--12--12------12--12--12------12--|
 10--10------10--10--10------10--9---9-------9---9---9-------9---|
 ----------------------------------------------------------------|


 A                               G#
 ----------------------------------------------------------------|
 ----------------------------------------------------------------|
 ----------------------------------------------------------------|
 14--14------14--14--14------14--14--14------14--14--14------14--|
 12--12------12--12--12------12--11--11------11--11--11------11--|
 ----------------------------------------------------------------|


 G               F#              C               D
 ----------------------------------------------------------------|
 ----------------------------------------------------------------|
 --------------------------------5---------------7---------------|
 12--------------12--------------5---------------7---------------|
 10--------------9---------------3---------------5---------------|
 ----------------------------------------------------------------|


 E               D               C               D
 ----------------------------------------------------------------|
 ----------------------------------------------------------------|
 9---------------7---------------5---------------7---------------|
 9---------------7---------------5---------------7---------------|
 7---------------5---------------3---------------5---------------|
 ----------------------------------------------------------------|


 D               D7              D               D7
 ----------------------------------------------------------------|
 ----------------------------------------------------------------|
 7---7-------------------------------7---------------------------|
 7---7-------7---7---7-------7---7---7-------7---7---7-------7---|
 5---5-------5---3---3-------3---5---5-------5---3---3-------3---|
 ----------------------------------------------------------------|


 C               C7              C               G               G
 -----------------------------------------------------------------------|
 -----------------------------------------------------------------------|
 5---5-------5---5---5-------5---5---5-------5--------------------------|
 5---5-------5---5---5-------5---5---5-------5---5---------------5-x----|
 3---3-------3---2---2-------2---3---2/3-----3---5---------------5-x----|
 ------------------------------------------------3---------------3-x----|

     

 OUTRO 1 (all four lines two times):

 G                               G                       D
 ----------------------------------------------------------------|
 ----------------------------------------------------------------|
 ------------------------------------4-----------4---------------|
 5-------x---x---x---x---x---x---5-------5-----------5-------x---|
 5-------x---x---x---x---x---x---5-----------5-----------5---5---|
 3-------3---3---3---3---3---3---3-------------------------------|


 D                               D                       D   C
 ----------------------------------------------------------------|
 ------------------------------------7-----------7---------------|
 7-------x---x---x---x---x---x---7-------7-----------7-----\-5---|
 7-------x---x---x---x---x---x---7-----------7-----------7-\-5---|
 5-------5---5---5---5---5---5---5-------------------------\-3---|
 ----------------------------------------------------------------|


 C                               C       Cadd4           C
 ----------------------------------------------------------------|
 --------------------------------5-/-6---6---6-----------5-------|
 5-------x---x---x---x---x---x---5-------5---5-----------5-------|
 5-------x---x---x---x---x---x---5-----------5-----------5-------|
 3-------3---3---3---3---3---3---3-----------3-----------3-------|
 ----------------------------------------------------------------|


 D                               D       Dadd4           D   
 ----------------------------------------------------------------|
 7-------x---x---x---x---x---x---7-/-8---8---8-----------7-------|
 7-------x---x---x---x---x---x---7-------7---7-----------7-------|
 7-------x---x---x---x---x---x---7-----------7-----------7-------|
 5-------5---5---5---5---5---5---5-----------5-----------5-------|
 ----------------------------------------------------------------|



 OUTRO 2:

 G                               G                       
 ----------------------------------------------------------------|
 ----------------------------------------------------------------|
 ------------4-------4-------4-----------4---4-------4-----------|
 5-------5---5-------5---5---5-----------5---5-------5-------5---|
 5-------5---5-------5---5---5-----------5---5-------5-------5---|
 3-------3---3-------3---3---3-----------3---3-------3-------3---|


 D                               D                           
 ----------------------------------------------------------------|
 ------------7-------7---7---7---7-----------7-------7---7-------|
 7-------7---7-------7---7---7---7-------7---7-------7---7-------|
 7-------7---7-------7---7---7---7-------7---7-------7---7-------|
 5-------5---5-------5---5---5---5-------5---5-------5---5-------|
 ----------------------------------------------------------------|


 C                               C                       
 ----------------------------------------------------------------|
 5-------5---5-------5---5-------5-------5---5-------5---5---5---|
 5-------5---5-------5---5-------5-------5---5-------5---5---5---|
 5-------5---5-------5---5-------5-------5---5-------5---5---5---|
 3-------3---3-------3---3-------3-------3---3-------3---3---3---|
 ----------------------------------------------------------------|


 D                               D           Dadd4   D       
 ----------------------------------------------------------------|
 7-----------7---------------------------7-/-8-------7---7-------|
 7-------7---7-------7---7---7---7-------7---7-------7---7-------|
 7-------7---7-------7---7---7---7-------7---7-------7---7-------|
 5-------5---5-------5---5---5---5-------5---5-------5---5-------|
 ----------------------------------------------------------------|


 G                               G                       
 ----------------------------------------------------------------|
 ----------------------------------------------------------------|
 ------------4-------4-------4-----------4---4-------4-----------|
 5-------5---5-------5---5---5-----------5---5-------5-------5---|
 5-------5---5-------5---5---5-----------5---5-------5-------5---|
 3-------3---3-------3---3---3-----------3---3-------3-------3---|


 D                               D                           
 ----------------------------------------------------------------|
 ------------7-------7---7---7---7-----------7-------7---7-------|
 7-------7---7-------7---7---7---7-------7---7-------7---7-------|
 7-------7---7-------7---7---7---7-------7---7-------7---7-------|
 5-------5---5-------5---5---5---5-------5---5-------5---5-------|
 ----------------------------------------------------------------|


 C               C7              C               C7             
 ----------------------------------------------------------------|
 ----------------------------------------------------------------|
 5---5-------5---5---5-------5---5---5-------5---5---5-------5---|
 5---5-------5---5---5-------5---5---5-------5---5---5-------5---|
 3---3-------3---2---2-------2---3---2/3-----3---2---2-------2---|
 ----------------------------------------------------------------|


 D                               D                           
 ----------------------------------------------------------------|
 ------------------------------------------------------------7---|
 7-------7---7-------7---7---7---7-------------------5---7-------|
 7-------7---7-------7---7---7---7-------4---5---7---------------|
 5-------5---5-------5---5---5---5---5---------------------------|
 ----------------------------------------------------------------|


 G                               F#
 ----------------------------------------------------------------|
 ----------------------------------------------------------------|
 ----------------------------------------------------------------|
 12--12------12--12--12------12--12--12------12--12--12------12--|
 10--10------10--10--10------10--9---9-------9---9---9-------9---|
 ----------------------------------------------------------------|


 A                               G#
 ----------------------------------------------------------------|
 ----------------------------------------------------------------|
 ----------------------------------------------------------------|
 14--14------14--14--14------14--14--14------14--14--14------14--|
 12--12------12--12--12------12--11--11------11--11--11------11--|
 ----------------------------------------------------------------|


 G               F#              F               E
 ----------------------------------------------------------------|
 ----------------------------------------------------------------|
 12--12------12--11--11------11--10--10------10--9---9-------9---|
 12--12------12--12--12------12--10--10------10--10--10------10--|
 10--10------10--9---9-------9---8---8-------8---7---7-------7---|
 ----------------------------------------------------------------|


 D#              D               D               G               G
 ------------------------------------------------------------------------|
 ------------------------------------------------------------------------|
 8---8-------8---7---7-------7---7-----7-----7---------------------------|
 8---8-------8---8---8-------8---7-----7-----7---5---------------5-------|
 6---6-------6---5---5-------5---5-----5-----5---5---------------3-------|
 ------------------------------------------------3---------------3-------|


                                 DIS' CHORDS
 
 INTRO PART 1 (muted all the time, except the high flute-tones,
               play both lines two times):

 A                               E                              
 ----------------------------------------------------------------|
 ------------------------10--------------------------------------|
 --------------------------------------------------------9-------|
 ----------------------------7-----------------------------------|
 12--12--12--12--12--12----------7---7---7---7---7---7-------7---|
 ----------------------------------------------------------------|


 F                               C                              
 ----------------------------------------------------------------|
 ----------------------------------------------------------------|
 ------------------------10----------------------x---x---5---5---|
 ------------------------------------x---x---5---5---5---5---5---|
 8---8---8---8---8---8-------8---3---3---3---3---3---3---3---3---|
 ----------------------------------------------------------------|



 INTRO PART 2 (play open):

 A                               E                              
 ----------------------------------------------------------------|
 ----------------------------------------------------------------|
 14--14--14--14--14--14--14--14--9---9---9---9---9---9---9---9---|
 14--14--14--14--14--14--14--14--9---9---9---9---9---9---9---9---|
 12--12--12--12--12--12--12--12--7---7---7---7---7---7---7---7---|
 ----------------------------------------------------------------|


 F                               C                              
 ----------------------------------------------------------------|
 ----------------------------------------------------------------|
 10--10--10--10--10--10--10--10--5---5---5---5---5---5---5---5---|
 10--10--10--10--10--10--10--10--5---5---5---5---5---5---5---5---|
 8---8---8---8---8---8---8---8---3---3---3---3---3---3---3---3---|
 ----------------------------------------------------------------|


 A                               E                              
 ----------------------------------------------------------------|
 ----------------------------------------------------------------|
 14--14--14--14--14--14--14--14--9---9---9---9---9---9---9---9---|
 14--14--14--14--14--14--14--14--9---9---9---9---9---9---9---9---|
 12--12--12--12--12--12--12--12--7---7---7---7---7---7---7---7---|
 ----------------------------------------------------------------|


 F                               G                              
 ----------------------------------------------------------------|
 ----------------------------------------------------------------|
 10--10--10--10--10--10--10--10--14--14--14--14--14--14--14--14--|
 10--10--10--10--10--10--10--10--14--14--14--14--14--14--14--14--|
 8---8---8---8---8---8---8---8---12--12--12--12--12--12--12--12--|
 ----------------------------------------------------------------|



 MAIN RIFF (play all four lines two times. there is a _tiny_ variation
            on the second time in the first line, but I don't care) :


 A                               A                              
 ----------------------------------------------------------------|
 --------------------------------------------------------1-------|
 x---2-------2-------2-------2-------------0-----------------2---|
 x---2-------2-------2-------2---------2-------------2-----------|
 x---0-------0-------0-------0---3\0/3---------------------------|
 ----------------------------------------------------------------|


 G                               G
 ----------------------------------------------------------------|
 --------------------------------------------------------1-------|
 ------------------------------------------0-----------------2---|
 x-------------------------------------2-------------2-----------|
 x---2-------2-------2-------2---3\0/3---------------------------|
 x---3-------3-------3-------3-----------------------------------|


 C                               C
 ----------------------------------------------------------------|
 --------------------------------------------------------1-------|
 x-----------------------------------------0-----------------2---|
 x---4-------4-------4-------4---------2-------------2-----------|
 x---0-------0-------0-------0---3\0/3---------------------------|
 ----------------------------------------------------------------|


 C                               C               B
 ----------------------------------------------------------------|
 ----------------------------------------------------------------|
 x---5-------5---x---5-------5---x---5-------5---x---4-------4---|
 x---5-------5---x---5-------5---x---5-------5---x---4-------4---|
 x---3-------3---x---3-------3---x---3-------3---x---2-------2---|
 ----------------------------------------------------------------|



 VERSE 1 PART 1:

 A                               A                              
 ----------------------------------------------------------------|
 ----------------------------------------------------------------|
 2---2-------2---2---2-------2---2---2-------2---2---2-------2---|
 2---2-------2---2---2-------2---2---2-------2---2---2-------2---|
 0---0-------0---0---0-------0---0---0-------0---0---0-------0---|
 ----------------------------------------------------------------|


 D                               D                              
 ----------------------------------------------------------------|
 ----------------------------------------------------------------|
 7---7-------7---7---7-------7---7---7-------7---7---7-------7---|
 7---7-------7---7---7-------7---7---7-------7---7---7-------7---|
 5---5-------5---5---5-------5---5---5-------5---5---5-------5---|
 ----------------------------------------------------------------|


 C                               E                              
 ----------------------------------------------------------------|
 ----------------------------------------------------------------|
 5---5-------5-------5-------5---9---9-------9-------9-------9---|
 5---5-------5-------5-------5---9---9-------9-------9-------9---|
 3---3-------3-------3-------3---7---7-------7-------7-------7---|
 ----------------------------------------------------------------|


 A                               C                       C B    
 ----------------------------------------------------------------|
 ----------------------------------------------------------------|
 x---2-------2-------2-------2---------5---5-------------5-4-----|
 x---2-------2-------2-------2---------5---5---------x---5-4-----|
 x---0-------0-------0-------0---3\0/3-3---3---------3---3-2-----|
 ----------------------------------------------------------------|



 VERSE 1 PART 2:

 A                               A     
 ----------------------------------------------------------------|
 ----------------------------------------------------------------|
 x---x-x---2---------x---2---x-x-x---x-x---2---------x---2---x-x-|
 x---x-x---2---------x---2---x-x-x---x-x---2---------x---2---x-x-|
 0---0-0---0---------0---0---0-0-0---0-0---0---------0---0---0-0-|
 ----------------------------------------------------------------|


 D                               D     
 ----------------------------------------------------------------|
 ----------------------------------------------------------------|
 x---x-x---7---------x---7---x-x-x---x-x---7---------x---7---x-x-|
 x---x-x---7---------x---7---x-x-x---x-x---7---------x---7---x-x-|
 5---5-5---5---------5---5---5-5-5---5-5---5---------5---5---5-5-|
 ----------------------------------------------------------------|


 C                               E     
 ----------------------------------------------------------------|
 --------------------------------------------------------9-------|
 x---x---x---x---x---x---x---5---x---x---x---x---x---x-------x---|
 x---x---x---x---x---x---5---5---x---x---x---x---x---x-------x---|
 3---3---3---3---3---3---3---3---7---7---7---7---7---7-------7---|
 ----------------------------------------------------------------|


 A               G               D               G
 ----------------------------------------------------------------|
 ----------------------------------------------------------------|
 x---2-------2-------------------x---7-------7-------------------|
 x---2-------2---x---5-------5---x---7-------7---x---5-------5---|
 x---0-------0---x---5-------5---x---5-------5---x---5-------5---|
 ----------------x---3-------3-------------------x---3-------3---|



 INTRO PART 2.


 MAIN RIFF  but only one time.


 VERSE 2  just like VERSE 1, both parts.


 INTRO 1  play two times, but let notes play long,
          and don't play the high flutetones.

 INTRO PART 2  but play the first two lines three times,
               then go on to the last two lines.
 

 OUTRO 1 (both lines three times):

 F                               G                       C   B
 ----------------------------------------------------------------|
 ----------------------------------------------------------------|
 10------10------10------14\-12--12--12------12------12--17--16--|
 10------10------10------14\-12--12--12------12------12--17--16--|
 8-------8-------8-------12\-10--10--10------10------10--15--14--|
 ----------------------------------------------------------------|


 A                               E
 ----------------------------------------------------------------|
 ----------------------------------------------------------------|
 14--14------14--------------14--9---9-------x-----------9---9---|
 14--14------14--x---x---x---14--9---9-------9---x---x---9---9---|
 12--12------12--12--12--12--12--7---7-------7---7---7---7---7---|
 ----------------------------------------------------------------|

 (then go on, both lines twice):
 F                               F
 ----------------------------------------------------------------|
 ----------------------------------------------------------------|
 ----1010------------1010------------1010------------1010----10--|
 x---1010----x---x---1010----x---x---1010----x---x---1010----10--|
 8---8-8-----8---8---8-8-----8---8---8-8-----8---8---8-8-----8---|
 ----------------------------------------------------------------|


 G                               G
 ----------------------------------------------------------------|
 ----------------------------------------------------------------|
 ----1212------------1212------------1212------------1212----12--|
 x---1212----x---x---1212----x---x---1212----x---x---1212----12--|
 10--1010----10--10--1010----10--10--1010----10--10--1010----10--|
 ----------------------------------------------------------------|



 MAIN RIFF  but last line twice.


 ENDING CHORD:

 A
 ------------|
 ------------|
 2-----------|
 2-----------|
 0-----------|
 ------------|

			    COFFEE AND CIGARETTES
 

 INTRO:

     F#                              A
 ----------------------------------------------------------------|
 ----------------------------------------------------------------|
 ----2-----------------------------------------------------------|
 2-4-------4-----2-----------------------------------4-----------|
 ----------------------4-----3---2---0-----2---------4-----------|
 ------------------------------------------------0---2-----------|


 F#        Do the "wroom" with your pick
 --------------------------------|
 --------------------------------|
 --------------------------------|
 4-------------------------------|
 4-------------------------------|
 2-------------------------------|



 MAIN RIFF:

 F#
 ----------------------------------------------------------------|
 ----------------------------------------------------------------|
 ----------------------------------------------2-----------------|
 ------------------------------2---------2/4-x-------4-----------|
 --------------0---------0/2/4-------4-------------------4\2\0/4-|
 0-2-2-2-2-2-2-------2-------------------------------------------|


 F#                            B                 C#
 -----------------------------------------------------------------|
 -----------------------------------------------------------------|
 ------------------------------4-----------------6-6-6-6-x--------|
 ------------------------------4-----------------6-6-6-6-x--------|
 --------------0---------0/2---2-----------------4-4-4-4-x--------|
 0-2-2-2-2-2-2-------2---------------------------------------0~~~-|


 F#
 ----------------------------------------------------------------|
 ----------------------------------------------------------------|
 ----------------------------------------------2-----------------|
 ------------------------------2---------2/4-x-------4-----------|
 --------------0---------0/2/4-------4-------------------4\2\0/4-|
 0-2-2-2-2-2-2-------2-------------------------------------------|


 F#                           
 ------------------------------|
 ------------------------------|
 ------------------------------|
 ------------------------------|
 --------------0---------0/2---|
 0-2-2-2-2-2-2-------2---------|


 B               E       B           E           B       E
 ----------------------------------------------------------------|
 ----------------------------------------------------------------|
 4-----------------------4-----------------------4---------------|
 4-----------2-----------4-----------2-----------4-------2-------|
 2-----------2-----------2-----------2-----------2-------2-------|
 ------------0-----------------------0-------------------0-------|



 VERSE 1 PART 1:

 F#          D               A                   B         E
 ----------------------------------------------------------------|
 ----------------------------------------------------------------|
 ------------7-------7-------2-------2-----------4---------------|
 4---4-------7-------7-------2-------2-----------4-x-x-x-x-------|
 4---4-------5-------5-------0-------0-----------2-2-2-2-2-2-----|
 2---2-----------------------------------------------------0-----|


 F#          D               A                   B         E
 ----------------------------------------------------------------|
 ----------------------------------------------------------------|
 ------------7-------7-------2-------2---------------------------|
 4---4-------7-------7-------2-------2-----------x---x---x-------|
 4---4-------5-------5-------0-------0-----------2---2---2-2-----|
 2---2-----------------------------------------------------0-----|


 F#          D               A                   B         E
 ----------------------------------------------------------------|
 ----------------------------------------------------------------|
 ------------7-------7-------2-------2-----------4---------------|
 4---4-------7-------7-------2-------2-----------4-x-x-x-x-------|
 4---4-------5-------5-------0-------0-----------2-2-2-2-2-2-----|
 2---2-----------------------------------------------------0-----|


 F#          D               A  
 ----------------------------------------------------------------|
 ----------------------------------------------------------------|
 ------------7-------7-------2-------2---2-------2-------2---2---|
 4---4-------7-------7-------2-------2---2-------2-------2---2---|
 4---4-------5-------5-------0-------0---0-------0-------0---0---|
 2---2-----------------------------------------------------------|



 VERSE 1 PART 2 (play both lines two times):

 D                               F#
 ----------------------------------------------------------------|
 ----------------------------------------------------------------|
 7---7-------7---7---7-------7-----------------------------------|
 7---7-------7---7---7-------7---4---4-------4---4---4-------4---|
 5---5-------5---5---5-------5---4---4-------4---4---4-------4---|
 --------------------------------2---2-------2---2---2-------2---|


 E                               C#
 ----------------------------------------------------------------|
 ----------------------------------------------------------------|
 --------------------------------6---6-------6---6---6---6---6---|
 2---2-------2---2---2---2---2---6---6-------6---6---6---6---6---|
 2---2-------2---2---2---2---2---4---4-------4---4---4---4---4---|
 0---0-------0---0---0---0---0-----------------------------------|



 MAIN RIFF.


 VERSE 2  like VERSE 1, both parts. In the latter-one a second guitar
          plays a quint for the chord, but don't let it bother. I wont!


 SOMETHING (all four lines two times):

 F#              A               F#                      E
 ----------------------------------------------------------------|
 ----------------------------------------------------------------|
 ----------------------------------------------------------------|
 4-------4-------2-----2-----4-----------x---------2-------2-----|
 4-------4-------0-----0-----4-----------x---2/3/4---4-3-2-2-----|
 2-------2---0-2-------------2-----------x-----------------0-----|


 F#              A               E                       A
 ----------------------------------------------------------------|
 ----------------------------------------------------------------|
 ------------------------------------------------------------2---|
 4-------4-------2-----2-----2-----------------------------x-2---|
 4-------4-------0-----0-----2-----------------------------x-0---|
 2-------2---0-2-------------0-----------------------------x-----|


 F#              A               E       F#
 ----------------------------------------------------------------|
 ----------------------------------------------------------------|
 ----------------------------------------------------------------|
 4-------4-------2-----2-----2-------4---4---x-------------------|
 4-------4-------0-----0-----2-------4---4---x-------------------|
 2-------2---0-2-------------0-------2---2---x-------------------|


 F#              A               E               D       D7
 ----------------------------------------------------------------|
 ----------------------------------------------------------------|
 ------------------------------------------------x-7-----x-7-----|
 4-------4-------2-----2-----2-------------------x-7-----x-7-----|
 4-------4-------0-----0-----2-------------------x-5-----x-4-----|
 2-------2---0-2-------------0-----------------------------------|



 SOLO  chords as VERSE 1 PART 1.

 VERSE 1 PART 2  two times the whole stuff, wich equales four times
                 the two lines.

 MAIN RIFF.


                               BROWN EYED GIRL


 INTRO (play two times):

 G               C               G           D
 --5---7---5-------10--12--10------5---7---5---------------------|
 8-7---8---7-8---1312--13--1213--8-7---8---7-8---7-----7---8-9---|
 7-----------7---12----------12--7-----------7---7-----7---7-7---|
 ----------------------------------------------------------------|
 ----------------------------------------------------------------|
 ----------------------------------------------------------------|



 VERSE 1 PART 1 (four times):

 G               C               G               D
 ----------------------------------------------------------------|
 ----------------------------------------------------------------|
 ----------------5-5---5-5-5-5-5-----------------7-7---7-7-7---7-|
 5-5---5-5-5-5-5-5-5---5-5-5-5-5-5-5---5-5-5-5-5-7-7---7-7-7---7-|
 5-5---5-5-5-5-5-3-3---3-3-3-3-3-5-5---5-5-5-5-5-5-5---5-5-5---5-|
 3-3---3-3-3-3-3-----------------3-3---3-3-3-3-3-----------------|



 VERSE 1 PART 2:

 C               D               G               E
 --------------------------------3---5---3-2--------------------- (guitar 2)
 ------------------------------------------------5-----0-----5---|
 5-5---5-5-5---5-7-7---7-7-7---7---------------------------------|
 5-5---5-5-5---5-7-7---7-7-7---7-5---7---5-4-----2-----2-----2---|
 3-3---3-3-3---3-5-5---5-5-5---5-5---7---5-4-----2-----2-----2---| (guitar 1)
 --------------------------------3---5---3-2-----0-----0-----0---


 C               D               G               D              
 ----------------------------------------------------------------|
 ----------------------------------------------------------------|
 5-5---5-5-5---5-7-7---7-7-7---7-----------------7---7-7---7-7---|
 5-5---5-5-5---5-7-7---7-7-7---7-5-5---5---5---5-7---7-7---7-7---|
 3-3---3-3-3---3-5-5---5-5-5---5-5-5---5---5---5-5---5-5---5-5---|
 --------------------------------3-3---3---3---3-----------------|


 D
 ----------------|
 ----------------|
 7---------------|
 7---------------|
 5---------------|
 ----------------|


 VERSE 2 PART 1  just like VERSE 1 PART 1.


 VERSE 2 PART 2  but last line:

 D               D               D
 ------------------------------------------------|
 ------------------------------------------------|
 7---7---7---7---7---7---7---7---7---7---7-7-7-7-|
 7---7---7---7---7---7---7---7---7---7---7-7-7-7-|
 5---5---5---5---5---5---5---5---5---5---5-5-5-5-|
 ------------------------------------------------|



 CHORUS (first line two times):

 G               C               G               D
 ----------------------------------------------------------------|
 ----------------------------------------------------------------|
 ----------------5-5---5-5-5-5-5-----------------7-7---7-7-7---7-|
 5-5---5-5-5-5-5-5-5---5-5-5-5-5-5-5---5-5-5-5-5-7-7---7-7-7---7-|
 5-5---5-5-5-5-5-3-3---3-3-3-3-3-5-5---5-5-5-5-5-5-5---5-5-5---5-|
 3-3---3-3-3-3-3-----------------3-3---3-3-3-3-3-----------------|


 G
 --------------------------------|
 --------------------------------|
 --------------------------------|
 5-------------------------------|
 5-------------------------------|
 3-------------------------------|



 BASS PLAYS INTRO.


 VERSE 3 PART 1  just like VERSE 1 PART 1.


 VERSE 3 PART 2  but last line:

 D               D               D
 ------------------------------------------------|
 ------------------------------------------------|
 7---7---7---7---7---7---7---7---7---7---7-7-7-7-|
 7---7---7---7---7---7---7---7---7---7---7-7-7-7-|
 5---5---5---5---5---5---5---5---5---5---5-5-5-5-|
 ------------------------------------------------|



 CHORUS (first line eight times and fade-out).



                                WHIPPING BOY
 

 INTRO:

 G                A              G               D       A
 ----------------------------------------------------------------|
 ----------------------------------------------------------------|
 -----------------2------------------------------7-7-----2-2-----|
 5-----0---2-4----2--------------5-----0---2-4---7-7-4-5-2-2-2-4-|
 5----------------0----5---4-4-0-5---------------5-5-----0-0-----|
 3-------------------------------3-------------------------------|


 G                E
 --------------------------------|
 --------------------------------|
 --------------------------------|
 5-----0---2-4----2--------------|
 5----------------2--------------|
 3----------------0--------------|



 VERSE 1:

 B               D               B               A
 ----------------------------------------------------------------|
 ----------------------------------------------------------------|
 ------------------7-7---7---7---4-4---4-4-4---4-2-2---2-2-2---2-|
 ------------------7-7---7---7---4-4---4-4-4---4-2-2---2-2-2---2-|
 2---2-4---4-5---x-5-5---5---5---2-2---2-2-2---2-0-0---0-0-0---0-|
 ----------------------------------------------------------------|


 G             D             B               A       F#
 ------------------------------------------------------------|
 --------------7-----7/8\7-----------------------------------|
 --------------7---7-7---7---4-4---4-4-4---4-2-2---2---------|
 ----0---2-----7---7-7---7---4-4---4-4-4---4-2-2---2-4-4---4-|
 --------------5---5-5---5---2-2---2-2-2---2-0-0---0-4-4---4-|
 3---------------------------------------------------2-2---2-|
  (2 beats miss)

 G               A                   D               B     E     D
 --------------------------------------------------------------------|
 --------------------------------------------------------------------|
 ----------------2-2---2-2-----------7---7-7-----7---4---4-9-----7---|
 5-5---5-5---5---2-2---2-2-0---2-x---7---7-7-----7---4---4-9-----7---|
 5-5---5-5---5---0-0---0-0-----------5---5-5-----5---2---2-7-----5---|
 3-3---3-3---3-------------------------------------------------------|
                                 (2 extra beats)


 CHORUS 1:

 G               A               E               B
 ----------------------------------------------------------------|
 ----------------------------------------------------------------|
 ------4-----4---------6-----6-------------------4---4-4-----4---|
 5---5-5-----5---7---7-7-----7---2---2-2---2---2-4---4-4-----4---|
 5---5-5-----5---7---7-7-----7---2---2-2---2---2-2---2-2-----2---|
 3---3-3-----3---5---5-5-----5---0---0-0---0---0-----------------|


 G               A               D       F#      G       A
 ----------------------------------------------------------------|
 ----------------------------------------------------------------|
 --------------------------------7---7---------------------------|
 5---------------7---------------7---7-x-4---4---5---5---7---7---|
 5---------------7---------------5---5-5-4---4-x-5---5-x-7---7-x-|
 3---------------5-----------------------2---2-2-3---3-3-5---5-5-|



 SOMETHING IN THE MIDDLE:

 D                               F#
 ----------------------------------------------------------------|
 ----------------------------------------------------------------|
 7-7---7-7-7-7---7-7---7-7-7-7-----------------------------------|
 7-7---7-7-7-7---7-7---7-7-7-7---4-4---4-4-4---4-4-4---4-4-4-4---|
 5-5---5-5-5-5---5-5---5-5-5-5---4-4---4-4-4---4-4-4---4-4-4-4---|
 --------------------------------2-2---2-2-2---2-2-2---2-2-2-2---|


 B                               G                       A
 ----------------------------------------------------------------|
 ----------------------------------------------------------------|
 4-4---4-4-4-4---4-4---4-4-4-4-4---------------------------------|
 4-4---4-4-4-4---4-4---4-4-4-4-4-5-5---5-5-5-5---5-5---5-7-7---7-|
 2-2---2-2-2-2---2-2---2-2-2-2-2-5-5---5-5-5-5---5-5---5-7-7---7-|
 --------------------------------3-3---3-3-3-3---3-3---3-5-5---5-|



 VERSE 2  as VERSE 1.



 CHORUS 2:

 G               A               E               B
 ----------------------------------------------------------------|
 ----------------------------------------------------------------|
 ------4-----4---------6-----6-------------------4---4-4-----4---|
 5---5-5-----5---7---7-7-----7---2---2-2---2---2-4---4-4-----4---|
 5---5-5-----5---7---7-7-----7---2---2-2---2---2-2---2-2-----2---|
 3---3-3-----3---5---5-5-----5---0---0-0---0---0-----------------|


 G               A   
 ---------------------|
 ---------------------|
 ---------------------|
 5---------------7-x--|
 5---------------7-x--|
 3---------------5-x--|



 SOMETHING ELSE:

 D               C               B               A
 ----------------------------------------------------------------|
 ----------------------------------------------------------------|
 7---x-x-x-7---5-----x-x-x-5---4-----x-x-x-4---2-----x-x-x-2-----|
 7---x-x-x-7---5-----x-x-x-5---4-----x-x-x-4---2-----x-x-x-2-----|
 5---5-5-5-5---3-----3-3-3-3---2-----2-2-2-2---0-----0-0-0-0-----|
 ----------------------------------------------------------------|


 G               E               F#              -               -
 --------------------------------------------------------------------|
 --------------------------------------------------------------------|
 ------------------------------------------------0-------------------|
 5---x-x-5-5-----2---2-2-----2---4---4-4-----4-----4-2-0---0-2-4-x---|
 5---x-5-5-5-----2---2-2-----2---4---4-4-----4-----------4-----------|
 3---3-3-3-3-----0---0-0-----0---2---2-2-----2-----------------------|
                                                                 (1 extra b
eat)

 D         (bass C)                  B               A
 --------------------------------------------------------------------|
 --------------------------------------------------------------------|
 7---7---7---7---9---9---9---9---x-----------------------------------|
 7---7---7---7---9---9---9---9---x---0---0---0---0---2---2---2---2---|
 5---5---5---5---7---7---7---7---x---2---2---2---2---0---0---0---0---|
 --------------------------------------------------------------------|
                                 (1 extra beat)

 G       G       G       G       A               
 ----------------------------------------------------------------|
 ----------------------------------------------------------------|
 --------------------------------2-------------------------------|
 x-x5--x-x-x5--x-x-x5--x-x-x5--x-2-------------------------------|
 x-x5--x-x-x5--x-x-x5--x-x-x5--x-0-------------------------------|
 3-33--3-3-33--3-3-33--3-3-33--3---------------------------------|



 CHORUS 3:

 G               A               E               B
 ----------------------------------------------------------------|
 ----------------------------------------------------------------|
 ------4-----4---------6-----6-------------------4---4-4-----4---|
 5---5-5-----5---7---7-7-----7---2---2-2---2---2-4---4-4-----4---|
 5---5-5-----5---7---7-7-----7---2---2-2---2---2-2---2-2-----2---|
 3---3-3-----3---5---5-5-----5---0---0-0---0---0-----------------|


 G               A
 ----------------------------------------------------------------|
 ----------------------------------------------------------------|
 ----------------------------------------------------------------|
 5---------------7-----------------------------------------------|
 5---------------7-----------------------------------------------|
 3---------------5-----------------------------------------------|



 OUTRO START:

 D       F#      G       A       D       F#      G       A
 ----------------------------------------------------------------|
 ----------------------------------------------------------------|
 7-7---7-------------------------7-7---7-------------------------|
 7-7---7-4-4---4-5-5---5-7-7---7-7-7---7-4-4---4-5-5---5-7-7---7-|
 5-5---5-4-4---4-5-5---5-7-7---7-5-5---5-4-4---4-5-5---5-7-7---7-|
 --------2-2---2-3-3---3-5-5---5---------2-2---2-3-3---3-5-5---5-|


 (three times the following two lines...)
 D                               F#
 ----------------------------------------------------------------|
 ----------------------------------------------------------------|
 7-7---7-7-7-7---7-7---7-7-7-7-----------------------------------|
 7-7---7-7-7-7---7-7---7-7-7-7---4-4---4-4-4---4-4-4---4-4-4-4---|
 5-5---5-5-5-5---5-5---5-5-5-5---4-4---4-4-4---4-4-4---4-4-4-4---|
 --------------------------------2-2---2-2-2---2-2-2---2-2-2-2---|


 B                               G                       A
 ----------------------------------------------------------------|
 ----------------------------------------------------------------|
 4-4---4-4-4-4---4-4---4-4-4-4-4---------------------------------|
 4-4---4-4-4-4---4-4---4-4-4-4-4-5-5---5-5-5-5---5-5---5-7-7---7-|
 2-2---2-2-2-2---2-2---2-2-2-2-2-5-5---5-5-5-5---5-5---5-7-7---7-|
 --------------------------------3-3---3-3-3-3---3-3---3-5-5---5-|

 (...but on the third time the last line):
 B               A               G                       A
 ----------------------------------------------------------------|
 ----------------------------------------------------------------|
 4-4---4-4-4-4---2-2---2-2-2---2---------------------------------|
 4-4---4-4-4-4---2-2---2-2-2---2-5-5---5-5-5-5---5-5---5-7-7---7-|
 2-2---2-2-2-2---0-0---0-0-0---0-5-5---5-5-5-5---5-5---5-7-7---7-|
 --------------------------------3-3---3-3-3-3---3-3---3-5-5---5-|



 ENDING RIFF:

 G                A              B               F#
 ----------------------------------------------------------------|
 ----------------------------------------------------------------|
 ----------------------------------------------------------------|
 5-----0---2-4----2--------------4-----0---2-4---4---------------|
 5----------------0----5---4-4-0-2---------------4---4-5-----4---|
 3-----------------------------------------------2---2-------2---|


 G                A              G
 ----------------------------------------------------------------|
 ----------------------------------------------------------------|
 ----------------------------------------------------------------|
 ----------------2---2-0---0-2---5-------------------------------|
 5---5-4---4-5---0---0-0---0-0---5-------------------------------|
 3---3-3---3-3-------------------3-------------------------------|




                                   NO ONE

 INTRO:

     D           Bb              C               A               D
 --------------------------------------------------------------------|
 --------------------------------------------------------------------|
 ----------------3---------------5---------------2---------------7---|
 7---2/3-x-2/3-x-3---2/3-x-2/3-x-5---2/3-x-2/3-x-2---2/3-x-2/3-x-7---|
 5---------------1---------------3---------------0---------------5---|
 --------------------------------------------------------------------|
 (two extra beats)
    
 D           Bb              C               A           Do the "wroom"
 ----------------------------------------------------------------|
 ----------------------------------------------------------------|
 ------------3---------------5---------------2---x---------------|
 2/3-x-2/3-x-3---2/3-x-2/3-x-5---2/3-x-2/3-x-2---x---------------|
 ------------1---------------3---------------0---x---------------|
 ----------------------------------------------------------------|


 VERSE 1:

 D                               Bb
 ----------------------------------------------------------------|
 ----------------------------------------------------------------|
 7---------------------------------------------------------------|
 7-------------------------------8-------------------------------|
 5-------------------------------8-------------------------------|
 --------------------------------6-------------------------------|


 D                               Bb      F       C
 ----------------6-------5--------------------------------------- (guitar 2
)
 ----------------------------------------------------------------|
 7---------------7-------7---7-----------10--10--5---5---5---5---|
 7---------------7-------7---7---8---8---10--10--5---5---5---5---|
 5---------------5-------5---5---8---8---8---8---3---3---3---3---|
 --------------------------------6---6---------------------------|


 D                               Bb              (..the wroom)
 ----------------------------------------------------------------|
 ----------------------------------------------------------------|
 7---------------------------------------------------------------|
 7-------------------------------8-------------------------------|
 5-------------------------------8-------------------------------|
 --------------------------------6-------------------------------|



 BRIDGE TO CHORUS:

 C               A               Bb              G
 ----------------------------------------------------------------|
 ----------------------------------------------------------------|
 5-x-x-x-x-x-x-------------------3-x-x-x-x-x-x-------------------|
 5-x-x-x-x-x-x-7-x-x-x-x-x-x-x-x-3-x-x-x-x-x-x-5-x-x-x-x-x-x-x5--|
 3-3-3-3-3-3-3-7-x-x-x-x-x-x-x-x-1-1-1-1-1-1-1-5-x-x-x-x-x-x-x5--|
 --------------5-5-5-5-5-5-5-5-5---------------3-3-3-3-3-3-3-33--|




 CHORUS 1:

 F               D               F               A           Bb
 ----------------------------------------------------------------|
 ----------------------------------------------------------------|
 --------------7-----7---7---7-7-10--10--101010------------------|
 3---3---3-3-3-7-----7---7---7-7-10--10--1010107-----7---7---8-x-|
 3---3---3-3-3-5-----5---5---5-5-8---8---8-8-8-7-----7---7---8-x-|
 1---1---1-1-1---------------------------------5-----5---5---6-x-|


 Bb              F               C               A             Bb
 ----------------------------------------------------------------|
 ----------------------------------------------------------------|
 --------------------------------5---5---5-5-5-------------------|
 --8-----8-8-8-3---3---3-3-3-3---5---5---5-5-5-7-----7---7-7-7-8-|
 --8-----8-8-8-3---3---3-3-3-3---3---3---3-3-3-7-----7---7-7-7-8-|
 --6-----6-6-6-1---1---1-1-1-1-----------------5-----5---5-5-5-6-|


 Bb              D               F               A             Bb
 ----------------------------------------------------------------|
 ----------------------------------------------------------------|
 --------------7-----7---7-7-7-7-10--10--10101014----14--1414----|
 --8-----8-8-8-7-----7---7-7-7-7-10--10--10101014----14--1414--8-|
 --8-----8-8-8-5-----5---5-5-5-3-8---8---8-8-8-12----12--1212--8-|
 --6-----6-6-6-------------------------------------------------6-|


 Bb                  F                            
 ----------------------------------------------------------------|
 ----------------------------------------------------------------|
 --------------------------------5---5---5-5-5-------------------|
 --8-----8-8-8-3-----3---3-3-3-3-5---5---5-5-5-----0---2---3-----|
 --8-----8-8-8-3-----3---3-3-3-3-3---3---3-3-3-4-----------------|
 --6-----6-6-6-1-----1---1-1-1-1---------------------------------|



 VERSE 2:

 D                               Bb
 ----------------------------------------------------------------|
 ----------------------------------------------------------------|
 7-----7-7-----7-7-----7-7---7-----------------------------------|
 7-----7-7-----7-7-----7-7---7---8-----8-8-----8-8-----8-8---8---|
 5-----5-5-----5-5-----5-5---5---8-----8-8-----8-8-----8-8---8---|
 --------------------------------6-----6-6-----6-6-----6-6---6---|


 D                               Bb                          C
 ----------------6-------5--------------------------------------- (guitar 2
)
 ----------------------------------------------------------------|
 7-----7-7-----7-7-----7-7---7-------------------------------5-5-|
 7-----7-7-----7-7-----7-7---7---8-----8-8-----8-8-8-x-------5-5-|
 5-----5-5-----5-5-----5-5---5---8-----8-8-----8-8-8-x-------3-3-|
 --------------------------------6-----6-6-----6-6-6-x-----------|


 D               Bb              D               G             
 ----------------------------------------------------------------|
 ----------------------------------------------------------------|
 7-----7-x---7-------------------7-----7-x---7-------------------|
 7-----7-x---7---8-----8-x---8---7-----7-x---7---5-5-5-5-x---5---|
 5-----5-x---5---6-----8-x---8---5-----5-x---5---5-5-5-5-x---5---|
 ----------------6-----6-x---6-------------------3-3-3-3-x---2---|


 D               Bb              G               A             
 ----------------------------------------------------------------|
 ----------------------------------------------------------------|
 7-----7-----7---------------------------------------------------|
 7-----7-----7---8-----8-----8---5-----5-----5---7---------------|
 5-----5-----5---6-----8-----8---5-----5-----5---7---------------|
 ----------------6-----6-----6---3-----3-----3---5---------------|



 BRIDGE TO CHORUS:

 (muted all the time)
 D               A               Bb              G
 ----------------------------------------------------------------|
 ----------------------------------------------------------------|
 7-x-x-x-x-x-x-------------------3-x-x-x-x-x---------------------|
 7-x-x-x-x-x-x---7-x-x-x-x-x-x-5-3-x-x-x-x-x-2-5-x-x-x-x-x-x-109-|
 5-5-5-5-5-5-5-8-7-x-x-x-x-x-x-3-1-1-1-1-1-1-0-5-x-x-x-x-x-x-8-7-|
 --------------6-5-5-5-5-5-5-5-----------------3-3-3-3-3-3-3-----|


 D               A               Bb              C
 ----------------------------------------------------------------|
 ----------------------------------------------------------------|
 7-x-x-x-x-x-x-------------------3-x-x-x-x-x---5-x-x-x-x-x-x-----|
 7-x-x-x-x-x-x---7-x-x-x-x-x-x-5-3-x-x-x-x-x-7-5-x-x-x-x-x-x-109-|
 5-5-5-5-5-5-5-8-7-x-x-x-x-x-x-3-1-1-1-1-1-1-5-3-3-3-3-3-3-3-8-7-|
 --------------6-5-5-5-5-5-5-5-----------------------------------|

 (open)
 D               A               Bb              G
 ----------------------------------------------------------------|
 ----------------------------------------------------------------|
 7---7---7-7-7-----------------3-3---3---3-----------------------|
 7---7---7-7-7-7-----7---7---7-5-3---3---3---7-5-----5---5---109-|
 5---5---5-5-5-7-----7---7---7-3-1---1---1---7-5-----5---5---8-7-|
 --------------5-x---5---5---5---------------5-3-----3---3-------|


 D               A               Bb              C
 ----------------------------------------------------------------|
 ----------------------------------------------------------------|
 7---7---7-7-7-----------------3-3---3---3-----------------------|
 7---7---7-7-7-7-----7---7---7-5-3---3---3---7-5-5-x-----5-------|
 5---5---5-5-5-7-----7---7---7-3-1---1---1---7-5-5-x-----5-------|
 --------------5-x---5---5---5---------------5-3-3-x-----3-------|



 CHORUS 2:

 F               D               F               A            
 ----------------------------------------------------------------|
 ----------------------------------------------------------------|
 ----------------7-----------7---10----------10------------------|
 3---x-x-x-x-x-x-7-----------7---10----------10--7-----------7---|
 3---x-x-x-x-x-x-5-----------5---8-----------8---7-----------7---|
 1---1-1-1-1-1-1---------------------------------5-----------5---|


 Bb              F               C               A
 ----------------------------------------------------------------|
 ----------------------------------------------------------------|
 --------------------------------5-----------5-------------------|
 8-----------8---3-----------3---5-----------5-------------------|
 8-----------8---3-----------3---3-----------3---4---5---7---x---|
 6-----------6---1-----------1-----------------------------------|


 Bb              D               Bb              A              
 ----------------------------------------------------------------|
 ----------------------------------------------------------------|
 --------------7-----7---7-7-7-7---------------------------------|
 8---8---8-8-8-7-----7---7-7-7-7-7---7---7-7-7-7-----7---7-7-7---|
 8---8---8-8-8-5-----5---5-5-5-3-5---5---5-5-5-7-----7---7-7-7---|
 6---6---6-6-6-------------------6---6---6-6-6-9-----9---9-9-9---|


 Bb                  F                            
 ----------------------------------------------------------------|
 ----------------------------------------------------------------|
 --------------------------------5---5---5-5-5-------------------|
 8-x-8---8-8-8-3-----3---3-3-3-3-5---5---5-5-5-----0---2---3-----|
 8-x-8---8-8-8-3-----3---3-3-3-3-3---3---3-3-3-4-----------------|
 6-x-6---6-6-6-1-----1---1-1-1-1---------------------------------|



 OUTRO:

 D                               Bb
 ----------------------------------------------------------------|
 ----------------------------------------------------------------|
 7---------------------------------------------------------------|
 7-------------------------------x---8---------------------------|
 5---------------8-8-8-7---8-7---x---8-----------8-8-8-7---8-7---|
 ------------------------------8-x---6-------------------------8-|


 D                               Bb
 ----------------------------------------------------------------|
 ----------------------------------------------------------------|
 x---7-----------------------------------10--1010----------------|
 x---7---------------------------8---8-8-10--1010----------------|
 x---5-----------8-8-8-7---8-7---8---8-8-8---8-8-7---7-7-----7---|
 ------------------------------8-6---6-6---------8---8-8-8-------|
                                    

 D               (slide down)   
 --------------------------------|
 --------------------------------|
 7-------------------------------|
 7-------------------------------|
 5-------------------------------|
 --------------------------------|



                                 BYE FOR NOW
 


 INTRO (both lines two times):

 E                               B
 ----------------------------------------------------------------|
 9-9---9-9-9---9-9-9---9-9-9---9---------------------------------|
 9-9---9-9-9---9-9-9---9-9-9---9-8-8---8-8-8---8-8-8---8-8-8---8-|
 9-9---9-9-9---9-9-9---9-9-9---9-9-9---9-9-9---9-9-9---9-9-9---9-|
 7-7---7-7-7---7-7-7---7-7-7---7-9-9---9-9-9---9-9-9---9-9-9---9-|
 --------------------------------7-7---7-7-7---7-7-7---7-7-7---7-|


 A
 ----------------------------------------------------------------|
 ----------------------------------------------------------------|
 ----------------------------------------------------------------|
 7-7---x-x-x-xxx-7-7---x-x-x-xxx-7-7---x-x-x-xxx-7-7---x-x-7---x-|
 7-7---x-x-x-xxx-7-7---x-x-x-xxx-7-7---x-x-x-xxx-7-7---x-x-7---x-|
 5-5---5-5-5-555-5-5---5-5-5-555-5-5---5-5-5-555-5-5---5-5-5---5-|



 VERSE 1 (both lines two times):

 E                               B
 ----------------------------------------------------------------|
 9-9---9-9-9---9-9-9---9-9-9---9---------------------------------|
 9-9---9-9-9---9-9-9---9-9-9---9-8-8---8-8-8---8-8-8---8-8-8---8-|
 9-9---9-9-9---9-9-9---9-9-9---9-9-9---9-9-9---9-9-9---9-9-9---9-|
 7-7---7-7-7---7-7-7---7-7-7---7-9-9---9-9-9---9-9-9---9-9-9---9-|
 --------------------------------7-7---7-7-7---7-7-7---7-7-7---7-|


 A
 ----------------------------------------------------------------|
 ----------------------------------------------------------------|
 ----------------------------------------------------------------|
 7-7---7-7-7-7---7-7---7-7-7-7---7-7---7-7-7-7---7-7---7-7-7---7-|
 7-7---7-7-7-7---7-7---7-7-7-7---7-7---7-7-7-7---7-7---7-7-7---7-|
 5-5---5-5-5-5---5-5---5-5-5-5---5-5---5-5-5-5---5-5---5-5-5---5-|



 CHORUS (both lines two times):

 E                               G#
 ----------------------------------------------------------------|
 ----------------------------------------------------------------|
 ----------------------------------------------------------------|
 2---2-------2---2---2-------2---6-6---6-----6---6-6---6-----6---|
 2---2-------2---2---2-------2---6-6---6-----6---6-6---6-----6---|
 0---0-------0---0---0-------0---4-4---4-----4---4-4---4-----4---|


 A
 ----------------------------------------------------------------|
 ----------------------------------------------------------------|
 ----------------------------------------------------------------|
 7-7---x-x-x-xxx-7-7---x-x-x-xxx-7-7---x-x-x-xxx-7-7---x-x-7---x-|
 7-7---x-x-x-xxx-7-7---x-x-x-xxx-7-7---x-x-x-xxx-7-7---x-x-7---x-|
 5-5---5-5-5-555-5-5---5-5-5-555-5-5---5-5-5-555-5-5---5-5-5---5-|


 INTRO  again
 VERSE 2  just as VERSE 1
 CHORUS 2  as CHORUS 1
 SOLO  as VERSE 1
"DIDN'T MEAN TO LET YOU DOWN" -PART.  As VESRE 1, but without guitar.
 CHORUS 3  as CHORUS 1.


                                HIDDEN TRACK
 

 INTRO:

 E       G       Bb      A       E       G       Bb      A      
 ----------------------------------------------------------------|
 ----------------------------------------------------------------|
 ----------------------------------------------------------------|
 2-------5-------8-------7-------2-------5-------8-------7-------|
 2-------5-------8-------7-------2-------5-------8-------7-------|
 0-------3-------6-------5-------0-------3-------6-------5-------|


 E       G       Bb      A       E       G       Bb             
 ----------------------------------------------------------------|
 ----------------------------------------------------------------|
 ----------------------------------------------------------------|
 2-------5-------8-------7-------2-------5-------8-x-------------|
 2-------5-------8-------7-------2-------5-------8-x-------------|
 0-------3-------6-------5-------0-------3-------6-x-------------|



 VERSE 1 (five times):

 E       G       Bb      A       E       G       Bb      A      
 ----------------------------------------------------------------|
 ----------------------------------------------------------------|
 ----------------------------------------------------------------|
 2-------5-------8-------7-------2-------5-------8-------7-------|
 2-------5-------8-------7-------2-------5-------8-------7-------|
 0-------3-------6-------5-------0-------3-------6-------5-------|


 (...and then):
 E       G       Bb      A       E       G       Bb             
 ----------------------------------------------------------------|
 ----------------------------------------------------------------|
 ----------------------------------------------------------------|
 2-------5-------8-------7-------2-------5-------8-x-------------|
 2-------5-------8-------7-------2-------5-------8-x-------------|
 0-------3-------6-------5-------0-------3-------6-x-------------|



 VERSE 2  as VERSE 1 but only four times


 ENDING CHORD:

 E
 --------------------------------|
 --------------------------------|
 --------------------------------|   (then brake your guitar, or produce a
 2-------------------------------|    sound just like it)
 2-------------------------------|
 0-------------------------------|

 -3D* PHEW *3D-

 That's it, I kind of hope that some one really uses this stuff..


---cut here---

Quite a heap of tabs, huh?-)

Greetings,

Miikka Lattu, Pori, Finland           
miilattu@spt.fi
            
Добавлено: 15.11.2013
Другие материалы по этой песне:
  • Аккорды и текст

Страница создана 15.11.2013
http://primanota.ru/lagwagon/trashed-chords.htm
Привет, Гость.
Предлагаем пройти революционный курс по гитаре.
Подарок от PrimaNota.Ru, забирай!