PrimaNota.ru - самый крупный в мире бесплатный архив песенных текстов, аккордов, табулатур и нот


Lagwagon - Tomorrow Is Heartbreak - текст песни, таба, видео

Регистрация Запомнить меня
Войти через:  Facebook Google Twitter Vk Yandex Mail.ru

Lagwagon - Tomorrow Is Heartbreak - текст песни, таба, видео

Печатать
Просмотров: 70


Tomorrow is Heartbreak by Lagwagon


Tabbed by Fisto McNaughty 2/6/05



Work out the rhythm for yourselves 
This isn't 100%, but it's good enough for me...


 pm - - - - - - - - - - -
e|--------------------------------------------------------|
B|--------------------------------------------------------|
G|--9--------9--------9-11-----8-------8-----------9------|
D|--9-11-9---9-11-9---9-11-9---8---6---8---4---6---9---4--|
A|--7-11-9---7-11-9---7-9--9---6---6---6---4---6---7---4--|
E|----9--7-----9--7--------7-------4-------2---4-------2--|


e|----------------------------------------------------------------------------|
B|----------------------------------------------------------------------------|
G|-----------------------------------------------------------------6-6/8-8-9--|
D|--6-6---6/9-9---9-98---8/9/11-11----------6-6---6/9-9---9-98---6-6/8-8-9--|
A|--6-6---6/9-9---9-98---8/9/11-11----x3----6-6---6/9-9---9-98---4-4/6-6-7--|
E|--4-4---4/7-7---7-76---6/7/9--9-----------4-4---4/7-7---7-76--------------|


e|-----------------------------------------------------------------------------------------------|
B|-----------------------------------------------------------------------------------------------|
G|--9-8---------------9---11---12-----11-9---11---12---8---9---11---12-----11-9-------4-------4--|
D|------11-9-7--------9---11---12-----11-9---11---12---8---9---11---12-----11-9---4---4---4---4--|
A|-------------10-9-6-7---9----10-----9--7---9----10---6---7---9----10-----9--7---4---2---4---2--|
E|--------------------------------------------------------------------------------2-------2------|


e|--------------------------------------------------------------------------------|
B|--------------------------------------------------------------------------------|
G|--8---13---8-----------9---------------------------8-------8-----------9-8-6-4--|
D|--8---13---8---4---6---9---4-----4-6-4-2-4-6---9---8---6---8---4---6---9-8-6-4--|
A|--6---11---6---4---6---7---4-----6-7-6-4-6-7---9---6---6---6---4---6---7-6-4-2--|
E|---------------2---4-------2-------------------7-------4-------2---4------------|

 pm - - -
e|---------------------------------------------------------------------------------------------|
B|---------------------------------------------------------------------------------------------|
G|--9--------9---11---12-----8---9---11---12----------9-------4---8---13---8---------------11--|
D|--9-11-9---9---11---12-----8---9---11---12---9-11-9-9---4---4---8---13---8---4---6---2---11--|
A|--7-11-9---7---9----10-----6---7---9----10---9-11-9-7---4---2---6---11---6---4---6---2---9---|
E|----9--7-------------------------------------7-9--7-----2--------------------2---4---0-------|


e|-----------------------------------------------|
B|-----------------------------------------------|
G|-----------------------------------------------|
D|--6-6---6/9-9---9-98---8/9/11-11---------6-6--|
A|--6-6---6/9-9---9-98---8/9/11-11----x4---6-6--|
E|--4-4---4/7-7---7-76---6/7/9--9----------4-4--|


Добавлено: 20.11.2013
Другие материалы по этой песне:
  • Аккорды и текст

Страница создана 25.07.2012
http://primanota.ru/lagwagon/tomorrow-is-heartbreak-chords.htm
Привет, Гость.
Предлагаем пройти революционный курс по гитаре.
Подарок от PrimaNota.Ru, забирай!