PrimaNota.ru - самый крупный в мире бесплатный архив песенных текстов, аккордов, табулатур и нот


Lagwagon - The Contortionist - текст песни, таба, видео

Регистрация Запомнить меня
Войти через:  Facebook Google Twitter Vk Yandex Mail.ru

Lagwagon - The Contortionist - текст песни, таба, видео

Печатать
Просмотров: 116
The Contortionist
Lagwagon


Intro
e|-----------------------------------------|
B|-----------------------------------------|
G|--2-2-2-2-2-2----------------------------|
D|--2-2-2-2-2-2--2-2-2-2-2-2--6-6-6-6-6-6--|
A|--0-0-0-0-0-0--2-2-2-2-2-2--6-6-6-6-6-6--|
E|---------------0-0-0-0-0-0--4-4-4-4-4-4--|

e|--------------------------------------------------------------------------------|
B|--------------------------------------------------------------------------------|
G|--------------------------------------------------------------------------------|
D|--6-6-6-6-6--8-8-8-8-8--9-9-9-9-9-9-9-9-9-9--8-8-8-8-8-8--6-6-6-6-6--4-4-4-4-4--|
A|--4-4-4-4-4--6-6-6-6-6--7-7-7-7-7-7-7-7-7-7--6-6-6-6-6-6--4-4-4-4-4--2-2-2-2-2--|
E|--------------------------------------------------------------------------------|


Verse x4 (“In a chalk dotted line.....”)
e|-------------------------------------------------------------------|
B|-------------------------------------------------------------------|
G|--2-2-2-2-2-2----------------------------6-6-6-6-6-6--4-4-4-4-4-4--|
D|--2-2-2-2-2-2--2-2-2-2-2-2--6-6-6-6-6-6--6-6-6-6-6-6--4-4-4-4-4-4--| 
A|--0-0-0-0-0-0--2-2-2-2-2-2--6-6-6-6-6-6--4-4-4-4-4-4--2-2-2-2-2-2--|
E|---------------0-0-0-0-0-0--4-4-4-4-4-4----------------------------|


Chorus (“Burn down.....”)
e|-------------------------------------------------------------------|
B|-------------------------------------------------------------------|
G|--9-9-9-9-9-9---------------2-2-2-2-2-2--6-6-6-6-6-6--4-4-4-4-4-4--|
D|--9-9-9-9-9-9--6-6-6-6-6-6--2-2-2-2-2-2--6-6-6-6-6-6--4-4-4-4-4-4--|
A|--7-7-7-7-7-7--6-6-6-6-6-6--0-0-0-0-0-0--4-4-4-4-4-4--2-2-2-2-2-2--|
E|---------------4-4-4-4-4-4-----------------------------------------|

e|-----------------------------------------------------------------|
B|-----------------------------------------------------------------|
G|----------------------------2-2-2-2-2-2---6~--4~-----------------|
D|--2-2-2-2-2-2--6-6-6-6-6-6--2-2-2-2-2-2---6~--4~-----------------|
A|--2-2-2-2-2-2--6-6-6-6-6-6--0-0-0-0-0-0---4~--2~---->>>>>>>>>----|
E|--0-0-0-0-0-0--4-4-4-4-4-4-------------------------->>>>>>>>>----|


Verse x1 (“Of a boy, damaged goods.....”)

Intro (“Carry on the camel's back.....”)


Fill
e|-----------------------------------------------|
B|-----------------------------------------------|
G|-----------------------------------------------|
D|--9-9-9-9-9-9-9-9-9-9--8-8-8-8-8-8---6~---4~---|
A|--7-7-7-7-7-7-7-7-7-7--6-6-6-6-6-6---4~---2~---|
E|-----------------------------------------------|


Bridge
e|--4-4-4-4-4-4--2-2-2-2-2-2-2--3-3-3-3-3-3------------------------------|
B|--4-4-4-4-4-4--2-2-2-2-2-2-2--3-3-3-3-3-3------------------------------|
G|--5-5-5-5-5-5--3-3-3-3-3-3-3--4-4-4-4-4-4------------------------------|
D|--6-6-6-6-6-6--4-4-4-4-4-4-4--5-5-5-5-5-5----2-2-2-2-2-2--4-4-4-4-4-4--|
A|--4-4-4-4-4-4--2-2-2-2-2-2-2--3-3-3-3-3-3----0-0-0-0-0-0--2-2-2-2-2-2--|
E|-----------------------------------------------------------------------|

e|-------------------|     |--3-3-3-3-3-3--|----------------|
B|-------------------|     |--3-3-3-3-3-3--|----4-----4--1--|
G|-------------------|     |--4-4-4-4-4-4--|--4---4-5-------|
D|--------2----------| x2  |--5-5-5-5-5-5--|----------------|
A|----2-4---4-2-0-2--|     |--3-3-3-3-3-3--|----------------|
E|--4----------------|     |---------------|----------------|
                               1st time           2nd       


e|----------------------------------------8-9-11-12-11-9-11------------------14-----|
B|--------------------------------7-9^~------------------------11~--11-12-13----13--|
G|--6^~--6-8-9~--8~-6~-8v~-9^~--8---------------------------------------------------|
D|----------------------------------------------------------------------------------|
A|----------------------------------------------------------------------------------|
E|----------------------------------------------------------------------------------|

e|-------------------------------------------------------------|
B|---------------------------------------------------5v~--4v~--|
G|--6^~--6-8-9--8--6-5v~--6-5~---6-8-9~---6-8-9-8-6---------~--|
D|-------------------------------------------------------------|
A|-------------------------------------------------------------|
E|-------------------------------------------------------------|


Verse (“Weigh the screenplay.....”)
e|------------------------------------|----------1st-time----------|-----2nd-----|
B|------------------------------------|----------------------------|-------------|
G|------------------------------------|----------------------------|-------------|
D|--9-9-9-9-9-9-9-9-9-9--8-8-8-8-8-8--|--6-6-6-6-6-6--4-4-4-4-4-4--|---6~---4~---|
A|--7-7-7-7-7-7-7-7-7-7--6-6-6-6-6-6--|--4-4-4-4-4-4--2-2-2-2-2-2--|---4~---2~---|
E|------------------------------------|----------------------------|-------------|


Chorus (“He will stay inside.....”)


Outro
e|--3-3-3-3-3-3-3--3/--|
B|--3-3-3-3-3-3-3--3/--|
G|--4-4-4-4-4-4-4--4/--|
D|--5-5-5-5-5-5-5--5/--|
A|--3-3-3-3-3-3-3--3/--|
E|---------------------|
Добавлено: 26.10.2013
Другие материалы по этой песне:
  • Аккорды и текст

Страница создана 30.06.2012
http://primanota.ru/lagwagon/the-contortionist-chords.htm
Привет, Гость.
Предлагаем пройти революционный курс по гитаре.
Подарок от PrimaNota.Ru, забирай!