PrimaNota.ru - самый крупный в мире бесплатный архив песенных текстов, аккордов, табулатур и нот


Lagwagon - Sick - текст песни, таба, бас-таба, видео

Регистрация Запомнить меня
Войти через:  Facebook Google Twitter Vk Yandex Mail.ru

Lagwagon - Sick - текст песни, таба, бас-таба, видео

Печатать
Просмотров: 204
Уроки эстрадного вокала в Санкт-Петербурге
Gtr I
    PM-----------------------------------------
||------------------|-------------------------|
||o-----------------|-------------------------|
||------------------|-------------------------|
||----------9-9-9-9-|-10-10-10-10-------------|
||o-7-7-7-7-7-7-7-7-|--8--8--8--8-10-10-10-10-|
||--5-5-5-5---------|--------------8--8--8--8-|


  A5      E5        F5          C5
 ----------------------------------------|
|-----------------|-------------------------|
|-----------------|-------------------------|
|-9-9-9-9---------|-------------------------|
|-7-7-7-7-9-9-9-9-|-10-10-10-10-------------|
|---------7-7-7-7-|--8--8--8--8-10-10-10-10-|
|-----------------|--------------8--8--8--8-|


  1.
  A5      E5        F5          D5
  PM-----------------------------------------
|-----------------|-------------------------|
|-----------------|-------------------------|
|-----------------|-------------------------|
|---------9-9-9-9-|-10-10-10-10-------------|
|-7-7-7-7-7-7-7-7-|--8--8--8--8-12-12-12-12-|
|-5-5-5-5---------|-------------10-10-10-10-|


  G5                        F5
 ------------------------------------------------|
|-------------------------|--------------------------||
|-------------------------|-------------------------o||
|-------------------------|--------------------------||
|-12-12-12-12-12-12-12-12-|-10-10-10-10-10-10-10-10--||
|-10-10-10-10-10-10-10-10-|--8--8--8--8--8--8--8--8-o||
|-------------------------|--------------------------||


  2.
  A5     E5   F5               D5
  Gtrs I, II
|----------------|-----------------------|
|----------------|-----------------------|
|--------9--9-10-|-(10)--10-10-----------|
|-7--7-7-9--9-10-|-(10)--10-10-12--12-12-|
|-7--7-7-7--7--8-|--(8)---8--8-12--12-12-|
|-5--5-5---------|-------------10--10-10-|


  G5                  F5
|-------------------|---------------------|
|-------------------|---------------------|
|-12--12-12--12-12--|-10--10-10--10-10-10-|
|-12--12-12--12-12--|-10--10-10--10-10-10-|
|-10--10-10--10-10--|--8---8--8---8--8--8-|
|-------------------|---------------------|


   Verse 2
    A5      E5        F5          C5
    PM-----------------------------------------
||------------------|-------------------------|
||o-----------------|-------------------------|
||------------------|-------------------------|
||----------9-9-9-9-|-10-10-10-10-------------|
||o-7-7-7-7-7-7-7-7-|--8--8--8--8-10-10-10-10-|
||--5-5-5-5---------|--------------8--8--8--8-|


  A5      E5        F5          C5
 ----------------------------------------|
|-----------------|--------------------------|
|-----------------|--------------------------|
|-9-9-9-9---------|--------------------------|
|-7-7-7-7-9-9-9-9-|-10-10-10-10--------------|
|---------7-7-7-7-|--8--8--8--8-10-10-10-10--|
|-----------------|--------------8--8--8--8--|


  1.
  A5      E5        F5          D5
  PM-----------------------------------------
|-----------------|-------------------------|
|-----------------|-------------------------|
|-----------------|-------------------------|
|---------9-9-9-9-|-10-10-10-10-------------|
|-7-7-7-7-7-7-7-7-|--8--8--8--8-12-12-12-12-|
|-5-5-5-5---------|-------------10-10-10-10-|


  G5                        F5
 ------------------------------------------------|
|-------------------------|--------------------------||
|-------------------------|-------------------------o||
|-------------------------|--------------------------||
|-12-12-12-12-12-12-12-12-|-10-10-10-10-10-10-10-10--||
|-10-10-10-10-10-10-10-10-|--8--8--8--8--8--8--8--8-o||
|-------------------------|--------------------------||


  2.
  A5     E5   F5               D5
|----------------|-----------------------|
|----------------|-----------------------|
|--------9--9-10-|-(10)--10-10-----------|
|-7--7-7-9--9-10-|-(10)--10-10-12--12-12-|
|-7--7-7-7--7--8-|--(8)---8--8-12--12-12-|
|-5--5-5---------|-------------10--10-10-|


  G5                  F5
|-------------------|---------------------|
|-------------------|---------------------|
|-12--12-12--12-12--|-10--10-10--10-10-10-|
|-12--12-12--12-12--|-10--10-10--10-10-10-|
|-10--10-10--10-10--|--8---8--8---8--8--8-|
|-------------------|---------------------|

Chorus
    C5                G5              A5              E5
||------------------|---------------|---------------|----------------|
||o-----------------|---------------|---------------|----------------|
||--5-5-5-5-5-5-5-5-|---------------|---------------|----------------|
||--5-5-5-5-5-5-5-5-|-5--5-5--5-5-5-|-7--7-7--7-7-7-|-2--2-2--2-2-2--|
||o-3-3-3-3-3-3-3-3-|-5--5-5--5-5-5-|-7--7-7--7-7-7-|-2--2-2--2-2-2--|
||------------------|-3--3-3--3-3-3-|-5--5-5--5-5-5-|-0--0-0--0-0-0--|

  F5                     Bb5
|---------------|-----------------||
|---------------|----------------o||
|---------------|-----------------||
|-3--3-3--3-3-3-|-3--3-3-8-8-8-8--||
|-3--3-3--3-3-3-|-3--3-3-8-8-8-8-o||
|-1--1-1--1-1-1-|-1--1-1-6-6-6-6--||


 Verse 3
  A5     E5   F5               C5
|----------------|-----------------------|
|----------------|-----------------------|
|--------9--9-10-|-(10)--10-10-----------|
|-7--7-7-9--9-10-|-(10)--10-10-10--10-10-|
|-7--7-7-7--7--8-|--(8)---8--8-10--10-10-|
|-5--5-5---------|--------------8---8--8-|


  A5        E5       F5        C5
|------------------|---------------------|
|-10--10-10--------|---------------------|
|--9---9--9-9--9-9-|-10--10-10-----------|
|--7---7--7-9--9-9-|-10--10-10-10--10-10-|
|-----------7--7-7-|--8---8--8-10--10-10-|
|------------------|------------8---8--8-|


  A5     E5   F5               D5
|----------------|-----------------------|
|----------------|-----------------------|
|--------9--9-10-|-(10)--10-10-----------|
|-7--7-7-9--9-10-|-(10)--10-10-12--12-12-|
|-7--7-7-7--7--8-|--(8)---8--8-12--12-12-|
|-5--5-5---------|-------------10--10-10-|


  G5                        F5
|-------------------------|-------------------------|
|-------------------------|-------------------------|
|-12-12-12-12-12-12-12-12-|-10-10-10-10-10-10-10-10-|
|-12-12-12-12-12-12-12-12-|-10-10-10-10-10-10-10-10-|
|-10-10-10-10-10-10-10-10-|--8--8--8--8--8--8--8--8-|
|-------------------------|-------------------------|


  A5     E5   F5               C5
|----------------|-----------------------|
|----------------|-----------------------|
|--------9--9-10-|-(10)--10-10-----------|
|-7--7-7-9--9-10-|-(10)--10-10-10--10-10-|
|-7--7-7-7--7--8-|--(8)---8--8-10--10-10-|
|-5--5-5---------|--------------8---8--8-|


  PM------------------------------------|
|------------------|-----------------------|
|-----10-----------|-----------------------|
|---9----9-----9---|------10---------------|
|-7----------9---9-|---10----10------10----|
|----------7-------|-8------------10----10-|
|------------------|------------8----------|


  A5     E5   F5               D5
|----------------|-----------------------|
|----------------|-----------------------|
|--------9--9-10-|-(10)--10-10-----------|
|-7--7-7-9--9-10-|-(10)--10-10-12--12-12-|
|-7--7-7-7--7--8-|--(8)---8--8-12--12-12-|
|-5--5-5---------|-------------10--10-10-|


  G5                  F5
|-------------------|---------------------|
|-------------------|---------------------|
|-12--12-12--12-12--|-10--10-10--10-10-10-|
|-12--12-12--12-12--|-10--10-10--10-10-10-|
|-10--10-10--10-10--|--8---8--8---8--8--8-|
|-------------------|---------------------|


   Chorus
    C5                G5              A5              E5
||------------------|---------------|---------------|----------------|
||o-----------------|---------------|---------------|----------------|
||--5-5-5-5-5-5-5-5-|---------------|---------------|----------------|
||--5-5-5-5-5-5-5-5-|-5--5-5--5-5-5-|-7--7-7--7-7-7-|-2--2-2--2-2-2--|
||o-3-3-3-3-3-3-3-3-|-5--5-5--5-5-5-|-7--7-7--7-7-7-|-2--2-2--2-2-2--|
||------------------|-3--3-3--3-3-3-|-5--5-5--5-5-5-|-0--0-0--0-0-0--|


  F5                     Bb5
|---------------|-----------------||
|---------------|----------------o||
|---------------|-----------------||
|-3--3-3--3-3-3-|-3--3-3-8-8-8-8--||
|-3--3-3--3-3-3-|-3--3-3-8-8-8-8-o||
|-1--1-1--1-1-1-|-1--1-1-6-6-6-6--||


   Bridge
    C5        E5     F5                 G5
    Gtr I
                                                   3x
||----------------------|--------------------------||
||o---------------------|-------------------------o||
||-------------9---9-10-|-(10)-10-10-10-12--12-12--||
||--10--10-10--9---9-10-|-(10)-10-10-10-12--12-12--||
||o-10--10-10--7---7--8-|--(8)--8--8--8-10--10-10-o||
||---8---8--8-----------|--------------------------||
|
|   Gtr II
|                                                  3x
||----------------------|--------------------------||
||o---------------------|-------------------------o||
||--17--17-17-16--16-17-|-(17)-17-17-17-19---------||
||----------------------|--------------------------||
||o-15--15-15-14--14-15-|-(15)-15-15-15-17--------o||
||----------------------|--------------------------||


  A5                G5                D5                F5
  Gtrs I, II
|-----------------|-----------------|-----------------|-----------------|
|-----------------|-----------------|-----------------|-----------------|
|-----------------|-----------------|-7-7-7-7-7-7-7-7-|-----------------|
|-7-7-7-7-7-7-7-7-|-5-5-5-5-5-5-5-5-|-7-7-7-7-7-7-7-7-|-3-3-3-3-3-3-3-3-|
|-7-7-7-7-7-7-7-7-|-5-5-5-5-5-5-5-5-|-5-5-5-5-5-5-5-5-|-3-3-3-3-3-3-3-3-|
|-5-5-5-5-5-5-5-5-|-3-3-3-3-3-3-3-3-|-----------------|-1-1-1-1-1-1-1-1-|

  G5                Bb5
|-----------------|------|
|-----------------|------|
|-----------------|------|
|-5-5-5-5-5-5-5-5-|-8----|
|-5-5-5-5-5-5-5-5-|-8----|
|-3-3-3-3-3-3-3-3-|-6----|


 Interlude
  A5  E5/BC    F5   C/E  F5    A5/EF   A5/E
  Gtr I
|------------|---------------|------------|
|------------|---------------|------------|
|------------|---------------|------------|
|------------|-10---10---10--|-7---7---7--|
|-7---7---7--|--8----7----8--|-7---8---7--|
|-5---7---8--|---------------|------------|
|
| Gtr II
|------------|---------------|------------|
|------------|---------------|------------|
|------------|---------------|------------|
|------------|---------------|------------|
|------------|--8----7----8--|-7---8---7--|
|-5---7---8--|---------------|------------|


  C5  G5/DEm   F5/CDm  F5/C F5/CE5/B
|------------|------------|---------------|
|------------|------------|---------------|
|------------|------------|---------------|
|-5---5---5--|-3---3---3--|-3---2------2--|
|-3---5---7--|-3---5---3--|-3---2------2--|
|------------|------------|---------------|
|
|------------|------------|---------------|
|------------|------------|---------------|
|------------|------------|---------------|
|------------|------------|---------------|
|-3---5---7--|-3---5---3--|-3---2-(2)-----|
|------------|------------|---------------|


  A5  E5/BC    F5   C/E  F5    A5/EF   A5/E
|------------|---------------|------------|
|------------|---------------|------------|
|------------|---------------|------------|
|------------|-10---10---10--|-7---7---7--|
|-7---7---7--|--8----7----8--|-7---8---7--|
|-5---7---8--|---------------|------------|
|
|------------|---------------|------------|
|------------|---------------|------------|
|------------|---------------|------------|
|------------|---------------|------------|
|------------|--8----7----8--|-7---8---7--|
|-5---7---8--|---------------|------------|


  C5  G5/DEm   F5/CDm  F5/C F5/CE5/B
|------------|------------|---------------|
|------------|------------|---------------|
|------------|------------|---------------|
|-5---5---5--|-3---3---3--|-3---2------2--|
|-3---5---7--|-3---5---3--|-3---2------2--|
|------------|------------|---------------|
|
|------------|------------|---------------|
|------------|------------|---------------|
|------------|------------|---------------|
|------------|------------|---------------|
|-3---5---7--|-7---8---7--|-7---5-(5)-----|
|------------|------------|---------------|


  A5  E5/BC     F5   C/E  F5    A5/EF    A5/E
|-------------|---------------|-------------|
|-------------|---------------|-------------|
|-------------|---------------|-------------|
|-------------|-10---10---10--|-7----7---7--|
|-7---7----7--|--8----7----8--|-7----8---7--|
|-5---7----8--|---------------|-------------|
|
|-------------|---------------|-------------|
|-------------|---------------|-------------|
|-------------|-10----9---10--|-9---10---9--|
|-7---9---10--|---------------|-------------|
|-------------|--8----7----8--|-7----8---7--|
|-5---7----8--|---------------|-------------|


  C5  G5/DEm   F5/CDm   F5/C F5/CE5/B
|------------|-------------|-----------|
|------------|-------------|-----------|
|------------|-------------|-----------|
|-5---5---5--|-3----3---3--|-3---2-----|
|-3---5---7--|-3----5---3--|-3---2-----|
|------------|-------------|-----------|
|
|------------|-------------|-----------|
|------------|-------------|-----------|
|-5---7---9--|-9---10---9--|-9---7-----|
|------------|-------------|-----------|
|-3---5---7--|-7----8---7--|-7---5-----|
|------------|-------------|-----------|


 Verse 4
  A5      E5        F5          C5
  Gtrs I, II
  PM-----------------------------------------
|-----------------|-------------------------|
|-----------------|-------------------------|
|-----------------|-------------------------|
|---------9-9-9-9-|-10-10-10-10-------------|
|-7-7-7-7-7-7-7-7-|--8--8--8--8-10-10-10-10-|
|-5-5-5-5---------|--------------8--8--8--8-|


  A5      E5        F5          C5
 ----------------------------------------|
|-----------------|-------------------------|
|-----------------|-------------------------|
|-9-9-9-9---------|-------------------------|
|-7-7-7-7-9-9-9-9-|-10-10-10-10-------------|
|---------7-7-7-7-|--8--8--8--8-10-10-10-10-|
|-----------------|--------------8--8--8--8-|


  A5      E5        F5          D5
  PM-----------------------------------------
|-----------------|-------------------------|
|-----------------|-------------------------|
|-----------------|-------------------------|
|---------9-9-9-9-|-10-10-10-10-------------|
|-7-7-7-7-7-7-7-7-|--8--8--8--8-12-12-12-12-|
|-5-5-5-5---------|-------------10-10-10-10-|


  G5
 --------------------------------------------|
|-------------------------|---------------------|
|-------------------------|---------------------|
|-------------------------|---------------------|
|-12-12-12-12-12-12-12-12-|---10---10---10---10-|
|-10-10-10-10-10-10-10-10-|-8----8----8----8----|
|-------------------------|---------------------|


  A5      E5        F5          C5
  PM-------------------------------------|
|-----------------|-------------------------|
|-----------------|-------------------------|
|-----------------|-------------------------|
|---------9-9-9-9-|-10-10-10-10-------------|
|-7-7-7-7-7-7-7-7-|--8--8--8--8-10-10-10-10-|
|-5-5-5-5---------|--------------8--8--8--8-|


   Outro Riff
    A5      D5        F5          C5
||------------------|-------------------------|
||o-----------------|-------------------------|
||----------7-7-7-7-|-10-10-10-10-------------|
||--7-7-7-7-7-7-7-7-|-10-10-10-10-10-10-10-10-|
||o-7-7-7-7-5-5-5-5-|--8--8--8--8-10-10-10-10-|
||--5-5-5-5---------|--------------8--8--8--8-|


  A5          E5        F5          C5
                                                  4x
|---------------------|---------------------------||
|-10-10-10-10---------|--------------------------o||
|--9--9--9--9-9-9-9-9-|-10-10-10-10---------------||
|--7--7--7--7-9-9-9-9-|-10-10-10-10-10-10-10-10---||
|-------------7-7-7-7-|--8--8--8--8-10-10-10-10--o||
|---------------------|--------------8--8--8--8---||


  A5
|----------|------------|------------|--------*|
|----------|------------|------------|--------*|
|----------|------------|------------|--------*|
|-7--------|-(7)--------|-(7)--------|-(7)----*|
|-7--------|-(7)--------|-(7)--------|-(7)----*|
|-5--------|-(5)--------|-(5)--------|-(5)----*|




--------------------------------------------------------------------------------


Tablature Legend
----------------
 h   - hammer-on
 p   - pull-off
 b   - bend
 pb  - pre-bend
 r   - bend release (if no number after the r, then release immediately)
 /\  - slide into or out of (from/to "nowhere")
 s   - legato slide
 S   - shift slide
 - natural harmonic
[n]  - artificial harmonic
n(n) - tapped harmonic
 ~   - vibrato
 tr  - trill
 T   - tap
 TP  - trem. picking
 PM  - palm muting
\n/  - tremolo bar dip; n = amount to dip
 \n  - tremolo bar down
 n/  - tremolo bar up
/n\  - tremolo bar inverted dip
 =   - hold bend; also acts as connecting device for hammers/pulls
 <> - volume swell (louder/softer)
 x   - on rhythm slash represents muted slash
 o   - on rhythm slash represents single note slash

Misc Legend
-----------
 |  - bar
||  - double bar
||o - repeat start
o|| - repeat end
*|  - double bar (ending)
 :  - bar (freetime)
 $  - Segno
 &  - Coda
Tempo markers -  = BPM(8/16=s8/s16), where s8 = swing 8ths, s16 = swing 16ths
Добавлено: 21.07.2012
Другие материалы по этой песне:

Страница создана 04.03.2012
http://primanota.ru/lagwagon/sick-chords.htm
Привет, Гость.
Предлагаем пройти революционный курс по гитаре.
Подарок от PrimaNota.Ru, забирай!