PrimaNota.ru - самый крупный в мире бесплатный архив песенных текстов, аккордов, табулатур и нот


Lagwagon - Sad Astronaut - текст песни, таба, видео

Регистрация Запомнить меня
Войти через:  Facebook Google Twitter Vk Yandex Mail.ru

Lagwagon - Sad Astronaut - текст песни, таба, видео

Печатать
Просмотров: 249
Уроки эстрадного вокала в Санкт-Петербурге
----------------------------------------------------------------------------
                       SAD ASTRONAUT - Lagwagon
----------------------------------------------------------------------------
Tabbed by: Mike Pihowich
Email: Divineletdown@hotmail.com

Tuning: Standard

Chords Used
  Am    F    C    G    E
e|------1---------3-------|
B|-1----1----1----3-------|
G|-2----2--------------1--|
D|-2----3----2---------2--|
A|-----------3----2----2--|
E|----------------3-------|


Acoustic Intro

       Am          F      C               G
As you sat on the bed, Moments from your end

 Am             F      C               G
Inconceivable dread, Inches from your head

         F         C     E
I can't bear to imagine you

          Am     F     C             G
In that horror scene, One too sad to be

       Am               F        C              G
In my mind's eye I am there, Embracing you so scared

         F              G
Now you kill me too....You killed me too

C                     E
Decidedly willing to lie for you

A                      F
Absolutely willing to cry for you

C                        E
Ill at ease in saying goodbye to you

A                        F
A part of me will never know....

***NOTE THAT THE POWER CHORDS DON'T SHOW THE RHYTHM, YOU'LL HAVE TO LISTEN TO THE SONG 
FIGURE THEM OUT***

Electric
Guitar 1
I am there again, intervals of red
e|--------------------------|
B|--------------------------|
G|----------------5---------|
D|--7------3------5------5--|
A|--7------3------3------5--|
E|--5------1-------------3--|

An accomplice to, Things I couldn't do...In a fable disabled
e|-------------------------------------------------------------------|
B|-------------------------------------------------------------------|
G|----------------5--------------------------------------------------|
D|--7------3------5------5------3------5-----------------------------|
A|--7------3------3------5------3------5-----------------------------|
E|--5------1-------------3------1------3----Pickscrape->>>>>>>>>>----|

I say words like foolish son, God what have you done
e|--------------------------|
B|--------------------------|
G|----------------5---------|
D|--7------3------5------5--|
A|--7------3------3------5--|
E|--5------1-------------3--|

I'm a thin blue cliché, hopelessly....I'm a mouthful of doubtful
e|-------------------------------------------------------------------|
B|-------------------------------------------------------------------|
G|----------------5--------------------------------------------------|
D|--7------3------5------2------3------5-----------------------------|
A|--7------3------3------2------3------5-----------------------------|
E|--5------1-------------0------1------3----Pickscrape->>>>>>>>>>----|

Decidedly willing to lie for you
Guitar 1
e|--------------------------|
B|--------------------------|
G|----------------5---------|
D|--7------3------5------5--|
A|--7------3------3------5--|
E|--5------1-------------3--|

Say it again Willing to cry for you
e|--------------------------|
B|--------------------------|
G|----------------5---------|
D|--7------3------5------5--|
A|--7------3------3------5--|
E|--5------1-------------3--|
Finally saying goodbye to you, A part of you I'll never know
e|--------------------------|
B|--------------------------|
G|----------------5---------|
D|--7------3------5------5--|
A|--7------3------3------5--|
E|--5------1-------------3--|
guitar 2
e|-----------------------------------------------|
B|-----------------------------------------------|
G|---9---7---5---4---3~------9---7---5---4---5---|
D|---x---x---x---x---x~------x---x---x---x---x---|
A|---7---5---3---2---1~------7---5---3---2---3---|
E|-----------------------------------------------|

Looking through the spyglass in a punctured sky, While your garden died
e|-----------------------------------------------|
B|-----------------------------------------------|
G|--------------------5--------------------------|
D|-3--------5---------5---------5----------7-----|
A|-3--------5---------3---------5----------7-----|
E|-1--------3-------------------3----------5-----|

You couldn't see the sky for your fallen stars? Endless in your arms
e|-----------------------------------------------|
B|-----------------------------------------------|
G|-----------------------------------------------|
D|-3--------5---------7---------5----------3-----|
A|-3--------5---------7---------5----------3-----|
E|-1--------3---------5---------3----------1-----|

You were still alive even as the sad astronaut...
e|---------------------------------------|
B|---------------------------------------|
G|---------------------------------------|
D|----5--------7---------5---------3-----|
A|----5--------7---------5---------3-----|
E|----3--------5---------3---------1-----|

Guitar 2 outro..
e|-----------------------------------------------|
B|-----------------------------------------------|
G|---9---7---5---4---3~------9---7---5---4---5---|
D|---x---x---x---x---x~------x---x---x---x---x---|
A|---7---5---3---2---1~------7---5---3---2---3---|
E|-----------------------------------------------|

finally
e|-----------------------------------------------|
B|-----------------------------------------------|
G|---9---7---5---4---3~------9---7---5---4-------|
D|---x---x---x---x---x~------9---7---5---4-------|
A|---7---5---3---2---1~------7---5---3---2-------|
E|-----------------------------------------------|

End on
e|--------|
B|--------|
G|---5----|
D|---5----|
A|---3----|
E|--------|
Добавлено: 15.04.2012
Другие материалы по этой песне:
  • Аккорды и текст

Страница создана 15.04.2012
http://primanota.ru/lagwagon/sad-astronaut-chords.htm
Привет, Гость.
Предлагаем пройти революционный курс по гитаре.
Подарок от PrimaNota.Ru, забирай!