PrimaNota.ru - самый крупный в мире бесплатный архив песенных текстов, аккордов, табулатур и нот


Lagwagon - Narrow Straits - текст песни, бас-таба, видео

Регистрация Запомнить меня
Войти через:  Facebook Google Twitter Vk Yandex Mail.ru

Lagwagon - Narrow Straits - текст песни, бас-таба, видео

Печатать
Просмотров: 111
NARROW STRAITS by Lagwagon. Album : Let's Talk About Leftovers (2000)
Nice bass lines in this great song, which suddenly jumps straight through your
ears.
!FOR MORE ACCURATE LAGWAGON BASS TABS, VISIT www.jiihootabs.cjb.net!
# verse #                                                           >
G--------4-------4-------4------------------------------------------>
D-------4-4-----4-4-----4-4-----420------4---------------5---------->
A---2-22---02-22---02-22---02-22---4----4-4-----5555----5-5-----7545>
E-----------------------------------2-22---23-33----3-33---35-55---->
>verse
>--------4-------4-------4------------------------------------------|
>-------4-4-----4-4-----4-4-----420------4--------------------------|
>---2-22---02-22---02-22---02-22---4----4-4-----5555----5555---7-77-|
>-----------------------------------2-22---23-33----3-33----3-3-----|
:
# end-verse # h=hammer-on *=play 6-8X %=pause                       >
G-----%%----%%--%%-h--%%----%%--%%-h-------------------------------->
D-----%%----%%--%%57--%%----%%--%%57-------------------------------->
A---5-%%5-5-%%5-%%--5-%%5-5-%%5-%%---*-------*-------*------5-5---7->
E-----%%----%%--%%----%%----%%--%%--2-------2-------3----------5-5-->
>end-verse
>-----%%----%%--%%-h--%%----%%--------------------------------------|
>-----%%----%%--%%57--%%----%%--7540--------------------------------|
>---5-%%5-5-%%5-%%--5-%%5-5-%%5------*-------*----------------------|
>-----%%----%%--%%----%%----%%------2-------2-------3---------------|
:
Then play 1st row of verse.
:
# verse2 # *=play 6-8X                                               
G---------------------------------------------------------------------------|
D-------*-----------------------------------------------5-------------------|
A---2--5------------------44------4-------55-*------------55------55---7-77-|
E-------------------2-222---2-2222--3-333---2-------3-33----3-333---3-3-----|
!FOR MORE LAGWAGON BASS TABS, VISIT www.jiihootabs.cjb.net!
# end-verse # !õ=11! h=hammer-on *=play 6-8X %=pause                >
G-----%%----%%--%%-h--%%----%%-------------------------------------->
D-----%%----%%--%%57--%%----%%--7540-------------------------------->
A---5-%%5-5-%%5-%%--5-%%5-5-%%5------*-------*-------*------5-5---7->
E-----%%----%%--%%----%%----%%------2-------2-------3----------5-5-->
>end-verse
>-----%%----%%--%%-h--%%----%%-h------------------------õ9--76------|
>-----%%----%%--%%57--%%----%%577540--------------------------------|
>---5-%%5-5-%%5-%%--5-%%5-5-%%-------*-------*----------------------|
>-----%%----%%--%%----%%----%%------2-------2-------3---------------|
:
# outro # *=play 6-8X %=pause                                       >
G------------------------------------------------------------------->
D---------------4--------------------*-------*---------------------->
A----*---------------*--------------5-------5-------2--------------->
E---2-------2-22-2--3-------3-0-35---------------------0--3---3-353->
>outro                                                              >
>------------------------------------------------------------------->
>------------------------------------*-------*-------*-------------->
>----*---------------*--------------5-------5-------0-------0-0-002->
>---2-------2-2225--3-------3-0-35---------------------------------->
>outro
>--|--%%--|4X|-----|------------------------------------------------|
>--|--%%----%------|------------------------------------------------|
>--|--%%----%0-00-2|------------------------------------------------|
>--|3-%%3-3-%------|3-----------------------------------------------|
!FOR MORE ACCURATE LAGWAGON BASS TABS, VISIT www.jiihootabs.cjb.net!
Fine!
Tabbed by Jussi Heinonen 05.10.2005.
Добавлено: 10.05.2012
Другие материалы по этой песне:
  • Аккорды и текст

Страница создана 03.05.2012
http://primanota.ru/lagwagon/narrow-straits-chords.htm
Привет, Гость.
Предлагаем пройти революционный курс по гитаре.
Подарок от PrimaNota.Ru, забирай!