PrimaNota.ru - самый крупный в мире бесплатный архив песенных текстов, аккордов, табулатур и нот


Lagwagon - Making Friends - аккорды и текст, таба, бас-таба, видео

Регистрация Запомнить меня
Войти через:  Facebook Google Twitter Vk Yandex Mail.ru

Lagwagon - Making Friends - аккорды и текст, таба, бас-таба, видео

Печатать
Просмотров: 182
Making Friends
Lagwagon
		   song:making friends
album:double plaidinum



intro
e|-------------------------------------------------------|
B|-------------------------------------------------------|
G|-------------------------------------------------------|
D|-------------2-2-2-2-------------2-2-------7-7-7-7-----|
A|---7-7-7-7---2-2-2-2---4-4-4-4---0-0-2-2---5-5-5-5-----|
E|---5-5-5-5---0-0-0-0---2-2-2-2-------0-0---------------|

e|-----------------------------------------|
B|-----------------------------------------|
G|-----------------------------------------|
D|-----------------------------------------|
A|---7-7-7-7---2-2-2-2---2-2------2--6-----|
E|---5-5-5-5---0-0-0-0---0-0------0--4-----|

e|-----------------------------------------------------------------------------|
B|-----------------------------------------------------------------------------|
G|-----------------------------------------------------------------------------|
D|-------------2-2-2-2-------------6-6-6-6---7-7-7-7-------------7-7-7-7---2---|
A|---7-7-7-7---2-2-2-2---4-4-4-4---4-4-4-4---5-5-5-5---7-7-7-7---5-5-5-5---2---|
E|---5-5-5-5---0-0-0-0---2-2-2-2-----------------------5-5-5-5-------------0---|



  verse   (one day....)
e|----------------------------------------------|
B|----------------------------------------------|
G|----------------------------------------------|  2x
D|-------------7-7-7-7--------------------------|
A|---4-4-4-4---5-5-5-5---7--7-7-7---2-2-2-2-----|
E|---2-2-2-2-------------5--5-5-5---0-0-0-0-----|


  bridge clean guitar
e|------------------------------------------------------------------------------|
B|------------------------------------------------------------------------------|
G|------------------------------------------------------------------------------|
D|------------------------------------------------------------------------------|
A|-----9--11-12------11--12-14------8--9-11------9--11-12------9--11-12---------|
E|---10------------12--------------9-----------10------------10-----------------|


   solo part
e|--------------------------------------------------------------------------------------|
B|--------------------------------------------------------------------------------------|
G|--------------------------------------------------------------------------------------|
D|--------------2-2-2-2-------------6-6-6-6---7-7-7-7-------------7-7--7--7--7---2------|
A|----7-7-7-7---2-2-2-2---4-4-4-4---4-4-4-4---5-5-5-5---7-7-7-7---5-5--5--5--5---2------|
E|----5-5-5-5---0-0-0-0---2-2-2-2-----------------------5-5-5-5------------------0------|
 |                                                                                      |
e|--------------------------------------------------------------------------------------|
B|--------------------------------------------------------------------------------------|
G|--------------------------------------------------------------------------------------|
D|--------------------------------------------------------------------------------------|
A|------solo---------------9-11-12---11-12-14--14---16---12---14------14-12-11-9-7------|
E|--------------------------------------------------------------------------------------|


    ------------intro 1x-------------------



verse     (for one day....)
e|--------------------------------------------------------------------------------------|
B|--------------------------------------------------------------------------------------|
G|--------------------------------------------------------------------------------------|
D|-------------7-7-7-7---------------------------------------------7--7-7-7---9-9-9-9---|
A|---4-4-4-4---5-5-5-5---7--7-7-7---2-2-2-2----4-4-4-4---7-7-7-7---5--5-5-5---7-7-7-7---|
E|---2-2-2-2-------------5--5-5-5---0-0-0-0----2-2-2-2---5-5-5-5------------------------|


           (Making friends....)
e|------------------------------------------------------------|
B|------------------------------------------------------------|
G|----------------------------------11-11-11---14-13----------|
D|-----------------------7-7-7-7------------------------------|
A|---4-4-4-4---7-7-7-7---5-5-5-5----9--9--9----12-11----------|
E|---2-2-2-2---5-5-5-5----------------------------------------|

e|--------------------------------------------------|
B|--------------------------------------------------|
G|--------------------------------------------------|
D|-----------------------7-7-7-7--------------------|
A|---4-4-4-4---7-7-7-7---5-5-5-5---2-2-2-2----------|
E|---2-2-2-2---5-5-5-5-------------0-0-0-0----------|

riff/   with effect  (It's so small...)
e|-----------------------------------------------------|
B|-----------------------------------------------------|
G|-----------------------------------------------------|
D|---7-7-7-7---9-9-9-9---6-6-6-6---7-7-7-7-------------|
A|---5-5-5-5---7-7-7-7---4-4-4-4---5-5-5-5-------------|
E|-----------------------------------------------------|


e|-----------------------------------------------------|
B|-----------------------------------------------------|
G|-----------------------------------------------------|
D|---7-7-7-7----9-9-9-9----6-6-6-6----7-7-7-7----------|
A|---5-5-5-5----7-7-7-7----4-4-4-4----5-5-5-5----------|
E|-----------------------------------------------------|
 |                                                     |        2x
e|-----------------------------------------------------|
B|-----------------------------------------------------|
G|---11-13-14---13-14-16---10-11-13---11-13-14---------|
D|-----------------------------------------------------|
A|-----------------------------------------------------|
E|-----------------------------------------------------|


e|-------------------------------------------|
B|-------------------------------------------|
G|------7-7-7-7---9-9-9-9--------------------|
D|------7-7-7-7---9-9-9-9---7----------------|
A|------5-5-5-5---7-7-7-7---7----------------|
E|--------------------------5----------------|     
Добавлено: 14.10.2013
Другие материалы по этой песне:

Страница создана 07.03.2012
http://primanota.ru/lagwagon/making-friends-chords.htm
Привет, Гость.
Предлагаем пройти революционный курс по гитаре.
Подарок от PrimaNota.Ru, забирай!