PrimaNota.ru - самый крупный в мире бесплатный архив песенных текстов, аккордов, табулатур и нот


Lagwagon - Island Of Shame - текст песни, таба, бас-таба, видео

Регистрация Запомнить меня
Войти через:  Facebook Google Twitter Vk Yandex Mail.ru

Lagwagon - Island Of Shame - текст песни, таба, бас-таба, видео

Печатать
Просмотров: 209
Уроки эстрадного вокала в Санкт-Петербурге
intro:
e-|-------------------------------------------------------------------------|
B-|-------------------------------------------------------------------------|
G-|-14--9--5--5-7-9-7-5--14--9--5--5-7-7-7-7-7-7-9-9--14-14-14-14-14-14-14--|
D-|-xx--x--x--x-x-x-x-x--xx--x--x--x-x-x-x-x-x-x-x-x--xx-xx-xx-xx-xx-xx-xx--|
A-|-12--7--3--3-5-7-5-3--12--7--3--3-5-5-5-5-5-5-7-7--12-12-12-12-12-12-12--|
E-|-------------------------------------------------------------------------|

e-|-------------------------------------------------------------------------|
B-|-------------------------------------------------------------------------|
G-|-14--12-14-14-14-14-14-14-14--12-14-14-14-14-14-14-14--14-16-17-16-14----|
D-|-xx--xx-xx-xx-xx-xx-xx-xx-xx--xx-xx-xx-xx-xx-xx-xx-xx--xx-xx-xx-xx-xx----|
A-|-12--10-12-12-12-12-12-12-12--10-12-12-12-12-12-12-12--12-14-15-14-12----|
E-|-------------------------------------------------------------------------|

e-|-------------------------------------------------------------------------|
B-|-------------------------------------------------------------------------|
G-|-12-14-14-14-14-14-14-14--12-14-14-14-14-14-14-14--12-14-14-14-14-14-14--|
D-|-xx-xx-xx-xx-xx-xx-xx-xx--xx-xx-xx-xx-xx-xx-xx-xx--xx-xx-xx-xx-xx-xx-xx--|
A-|-10-12-12-12-12-12-12-12--10-12-12-12-12-12-12-12--10-12-12-12-12-12-12--|
E-|-------------------------------------------------------------------------|

e-|-----------------------------|
B-|-----------------------------|
G-|-14--14-16-16-16-16-16-17-17-|
D-|-xx--xx-xx-xx-xx-xx-xx-xx-xx-|
A-|-12--12-14-14-14-14-14-15-15-|
E-|-----------------------------|
and its prejudice...etc...
e-|-------------------------------------------------------------------------|
B-|-------------------------------------------------------------------------|
G-|-10-10-10-7-7-7-9-9-9-10-10-10-7-7-7-7-7-7-7-7-----------------10-10-10--|
D-|-10-10-10-7-7-7-9-9-9-10-10-10-7-7-7-7-7-7-7-7-7-7-7-7-7-7-7-7-10-10-10--|
A-|--8--8--8-5-5-5-7-7-7--8--8--8-5-5-5-5-5-5-5-5-7-7-7-7-7-7-7-7--8--8--8--|
E-|-----------------------------------------------5-5-5-5-5-5-5-5-----------|

e-|-----------------------|
B-|-----------------------|
G-|-7-7-7-9-9-9-9-9-9-9-9-|
D-|-7-7-7-9-9-9-9-9-9-9-9-|
A-|-5-5-5-7-7-7-7-7-7-7-7-|
E-|-----------------------|
verse:
e-|-------------------------------------------------------------------------|
B-|-------------------------------------------------------------------------|
G-|------------10-10-9-10-10-5-5-4-5-5-7-7-7-7-5-4------------10-10-9-10-10-|
D-|-7-7-10-9-7-10-10-9-10-10-5-5-4-5-5-7-7-7-7-5-4--7-7-5-7-7-10-10-9-10-10-|
A-|-7-7---------8--8-7--8--8-3-3-2-3-3-5-5-5-5-3-2--7-7-5-7-7--8--8-7--8--8-|
E-|-5-5---------------------------------------------5-5-3-5-5---------------|

e-|-------------------------------------------------------------------------|
B-|-------------------------------------------------------------------------|
G-|-5-5-4-5-5-7-7--------------------10-10-9-10-10-5-5-4-5-5-7-7-7-7-5-4----|
D-|-5-5-4-5-5-7-7----------7-7-5-7-7-10-10-9-10-10-5-5-4-5-5-7-7-7-7-5-4----|
A-|-3-3-2-3-3-5-5---3-2-0--7-7-5-7-7--8--8-7--8--8-3-3-2-3-3-5-5-5-5-3-2----|
E-|------------------------5-5-3-5-5----------------------------------------|

e-|-------------------------------------------------|
B-|-------------------------------------------------|
G-|-----------10-10-9-10-10-5-5-4-5-5-7-7-7-7-10-12-|
D-|-7-7-5-7-7-10-10-9-10-10-5-5-4-5-5-7-7-7-7-10-12-|
A-|-7-7-5-7-7--8--8-7--8--8-3-3-2-3-3-5-5-5-5--8-10-|
E-|-5-5-3-5-5---------------------------------------|

chorus:
e-|-------------------------------------------------------------------------|
B-|-------------------------------------------------------------------------|
G-|-10-10-10----9-10-14-12-10-12-10-------------5-7-10-10-10-10-10----------|
D-|-10-10-10-10-9-10-xx-xx-xx-xx-xx-7-5-7-9-7-5-5-7-10-10-10-10-10----------|
A-|--8--8--8-10-7--8-12-10--8-10--8-7-5-7-9-7-5-3-5--8--8--8--8--8----------|
E-|-----------8---------------------5-3-5-7-5-3-----------------------------|

e-|-----------------------------|
B-|-----------------------------|
G-|-----------------------------|
D-|-7-5---5---------------------|
A-|-----7---7-5-6-7-5-3-0-5-3-0-|
E-|-----------------------------|

solo:
e-|-------------------------------------------------------------------------|
B-|-------------------------------------------------------------------------|
G-|---------5---5-5-7-8-7-5----------5---5---5-4-2-0----------5---5-5-7-8-7-|
D-|-7-7-5h7---7--------------7-7-5h7---7---7----------7-7-5h7---7-----------|
A-|-------------------------------------------------------------------------|
E-|-------------------------------------------------------------------------|

e-|----------------------5-|
B-|----------------8-5-8---|
G-|-5----------5-5---------|
D-|----7-7-5h7-------------|
A-|------------------------|
E-|------------------------|

there's a couple minor differences in the second verse... at the beginning of it
instead of playing the D-10-9-8- part you just play the chords E-5-5-3-5-5--| (hope
that makes sense) and instead of pausing and playing A-3-2-0----------------| you just hold D
longer and then pause... (hope that makes sense too)...

bridge:
e-|-------------------------------------------------------------------------|
B-|-------------------------------------------------------------------------|
G-|-----------------------5-7-7-7-7-7-7-9-9---------------------------------|
D-|--7--5--3--5--7--5--3--x-x-x-x-x-x-x-x-x--7-7-7-7-7-7-7---5-5-5-5-5-5-5--|
A-|--7--5--3--5--7--5--3--3-5-5-5-5-5-5-7-7--7-7-7-7-7-7-7---5-5-5-5-5-5-5--|
E-|--5--3--1--3--5--3--1---------------------5-5-5-5-5-5-5---3-3-3-3-3-3-3--|

e-|-------------------------------------------------------------------------|
B-|-------------------------------------------------------------------------|
G-|-------------------------------------------------------------------------|
D-|-3-3-3-3-3-3-3--5-5-5-5-5-5-5--7-7-7-7-7-7-7--5-5-5-5-5-5-5--3-3-3-3-3-3-|
A-|-3-3-3-3-3-3-3--5-5-5-5-5-5-5--7-7-7-7-7-7-7--5-5-5-5-5-5-5--3-3-3-3-3-3-|
E-|-1-1-1-1-1-1-1--3-3-3-3-3-3-3--5-5-5-5-5-5-5--3-3-3-3-3-3-3--1-1-1-1-1-1-|

e-|-------------------------------------------------------------------------|
B-|-------------------------------------------------------------------------|
G-|-----------------------9-9-9-9-9-9-9-9-10-10-10-10-10-10-10-10-12-12-12--|
D-|-3-2---7-7-7-7-7-7-7-7-9-9-9-9-9-9-9-9-10-10-10-10-10-10-10-10-12-12-12--|
A-|-3-2---7-7-7-7-7-7-7-7-7-7-7-7-7-7-7-7--8--8--8--8--8--8--8--8-10-10-10--|
E-|-1-0---5-5-5-5-5-5-5-5---------------------------------------------------|

e-|--------------------------------------------------------------------------|
B-|--------------------------------------------------------------------------|
G-|-12-12-12-12-12-14-14-14-14-14-14-14-14-9-9-9-9-9-9-9-9-10-10-10-10-10-10-|
D-|-12-12-12-12-12-xx-xx-xx-xx-xx-xx-xx-xx-x-x-x-x-x-x-x-x-xx-xx-xx-xx-xx-xx-|
A-|-10-10-10-10-10-12-12-12-12-12-12-12-12-7-7-7-7-7-7-7-7--8--8--8--8--8--8-|
E-|--------------------------------------------------------------------------|

e-|----------------|
B-|----------------|
G-|-10-10-9--9-9-9-|
D-|-xx-xx-x--9-9-9-|
A-|--8--8-7--7-7-7-|
E-|----------------|

then back to the its prejudice ..etc.. part...
Добавлено: 13.06.2012
Другие материалы по этой песне:

Страница создана 18.04.2012
http://primanota.ru/lagwagon/island-of-shame-chords.htm
Привет, Гость.
Предлагаем пройти революционный курс по гитаре.
Подарок от PrimaNota.Ru, забирай!