PrimaNota.ru - самый крупный в мире бесплатный архив песенных текстов, аккордов, табулатур и нот


Lagwagon - Inspector Gadget - аккорды и текст, таба, бас-таба, драм-таба, видео

Регистрация Запомнить меня
Войти через:  Facebook Google Twitter Vk Yandex Mail.ru

Lagwagon - Inspector Gadget - аккорды и текст, таба, бас-таба, драм-таба, видео

Печатать
Просмотров: 188
Inspector Gadget
Lagwagon
		   Inspector Gadget
By Lagwagon - From the Album "Duh" available on Fat Wreck Chords
To receive a free catalog of shirts and albums from Fat Wreck Chords,
(the best label in the world) send your name and address to:

Fat Wreck Chords
P.O. Box 460144
San Francisco, CA
94146

Note:  This song is a short instrumental.  Play it with normal distortion
and make up your own bass line for it (it mostly matches the guitar).  Add
vocals if you want, but it sounds better without.

h = hold note for a few seconds

        Part 1               Part 2
E---------------------I---------------------I
B---------------------I---------------------I
G---------------------I-----------2-1h------I
D-------0-2---1---0---I-------0-2-----------I
A-0-2-3-----3---2---3-I-0-2-3---------------I
E---------------------I---------------------I

                      E---------------------I
                      B---------------------I
Repeat Part 1         G-2-1-0-------------2-I
                      D-------4-3h------2---I
                      A---------------------I
                      E---------------------I

Repeat Part 1 and then Repeat Part 2

                      E---------------------I
                      B---------------------I
Repeat Part 1         G-------------------2-I
                      D-----------------2-2-I
                      A-0---------------2-0-I
                      E---4-3-2-1h------0---I
                      {This part}
                      {should be}
                      {played with}
                      {a bass.}

This tab was created in its entirety by Rodrigo.
1995.     
Добавлено: 01.12.2013
Другие материалы по этой песне:

Страница создана 26.03.2012
http://primanota.ru/lagwagon/inspector-gadget-chords.htm
Привет, Гость.
Предлагаем пройти революционный курс по гитаре.
Подарок от PrimaNota.Ru, забирай!