PrimaNota.ru - самый крупный в мире бесплатный архив песенных текстов, аккордов, табулатур и нот


Lagwagon - I Must Be Hateful - аккорды и текст, таба, бас-таба, видео

Регистрация Запомнить меня
Войти через:  Facebook Google Twitter Vk Yandex Mail.ru

Lagwagon - I Must Be Hateful - аккорды и текст, таба, бас-таба, видео

Печатать
Просмотров: 228
I Must Be Hateful
Lagwagon
tabbed: 05-25-2003
 
Hello there. At last, a tablature for this fantastic song from lagwagon:
I must be hateful from the new album: Blaze. This is actually my first
tab. I've just given the chords positions, not the rythm to play it
(but, truly, it's really not hard to find how). I think it's the first
tablature from the new awesome album from Lagwagon: Blaze
 
tablature by Christophe Schuwey
You can freely distribute this tab on the net, just keep my name in it.
 
Any comment, correction or suggestions are really welcome:
macguard@mac.com
 
/////// NICE LITTLE RIFF (MAIN RIFF) //////
 
-------------------
-------------------
-------------------
-------------------
----6--------4---7-
--7----7(7)--------
 
////// VARIATION ON THE RIFF (NOT QUITE SURE ABOUT IT)/////
 
-------------------
-------------------
-------------------
-------------------
----1----4-2-1-2---
--2---2------------
 

////// LITTLE "THING" INSIDE VERSE /////
 
-----------
-----------
-------9---
---6---9---
---6---7---
---4-------
 
///// CHORUS //////
 
-----------------------------------
-----------------------------------
-----------------8-------9-------11
---9/4-----9/4---8---6---7---9---11
---9/4-----9/4---6---6---7---7---9-
---7/2-----7/2-------4-------7-----
 
------------------------------
------------------------------
----------8-------9-------11--
---9/4----8---6---7---9---11--
---9/4----6---6---7---7---9---
---7/2--------4-------7-------
 
----------------------------------------------------
----------------------------------------------------
---------------------------8--9--11--------------9--
---2--4--9--4-----2--4--9--8--9--11--9--4--6--9--9--
---2--4--9--4-----2--4--9--6--7--9---9--4--6--9--7--
---0--2--7--2-----0--2--7------------7--2--4--7-----
 
/////////////////////
 
Christophe Schuwey
from Switzerland
macguard@mac.com
     
Добавлено: 06.12.2013
Другие материалы по этой песне:

Страница создана 05.03.2012
http://primanota.ru/lagwagon/i-must-be-hateful-chords.htm
Привет, Гость.
Предлагаем пройти революционный курс по гитаре.
Подарок от PrimaNota.Ru, забирай!