PrimaNota.ru - самый крупный в мире бесплатный архив песенных текстов, аккордов, табулатур и нот


Lagwagon - Good Bye - текст песни, таба, видео

Регистрация Запомнить меня
Войти через:  Facebook Google Twitter Vk Yandex Mail.ru

Lagwagon - Good Bye - текст песни, таба, видео

Печатать
Просмотров: 110
Intro
e|---------------------------------------------------------------------------|
B|---------------------------------------------------------------------------|
G|-7-7-7--5-5-5-5--7---5-----------------------------------------------------|
D|-7-7-7--5-5-5-5--7---5---3-------------------------------------------------|
A|-5-5-5--3-3-3-3--5---3---3-------------------------------------------------|
E|-------------------------1-------------------------------------------------|

Verse
e|----"i can see what's meant to be....."------------------------------------|
B|---------------------------------------------------------------------------|
G|--3---------------------3-----------------------3-----------6---------pm^^^|
D|--3----------3----------3-----------3-----------3-----------6---------3----|
A|--1----------3----------1-----------3-----------1-----------4---------3----|
E|-------------1----------------------1---------------------------------1----|

e|-"the time we wasted.........on a couch..."-----------"...they're all lying"
B|---------------------------------------------------------------------------|
G|------------------------------3-----5-----------7-----3------5------------7|
D|------------------------------3-----5-----7-----7-----3------5------7-----7|
A|------------------------------1-----3-----7-----5-----1------3------7-----5|
E|-----------33--55-------------------------5-------------------------5------|


e|-"there's no proof..."-------------"...i wanna thank you"----------"goodbye"
B|---------------------------------------------------------------------------|
G|-3------------5------------------7--------------6--------3--------5--------|
D|-3------------5--------7---------7--------------6--------3--------5-------3|
A|-1------------3--------7---------5--------------4--------1--------3-------3|
E|-----------------------5--------------------------------------------------1|

Bridge riff same as verse riff

Solo
e|---------------------------------------------------------------------------|
B|--------9-10-12-14-10--------------9-10-12-14------------------------------|
G|--10-10----------------------10-10-----------------------------------------|
D|---------------------------------------------------------------------------|
A|---------------------------------------------------------------------------|
E|---------------------------------------------------------------------------|

Repeat chorus

Outro
e|-"...for all the pains of goodbye"-----------------------------------------|
B|-------------------------------------------------(4x)----------------------|
G|------------------------------------2----3----5--------end on--------------|
D|------------------------------3-----2----3----5----------3-----------------|
A|------------------------------3-----0----1----3----------3-----------------|
E|------------------------------1--------------------------1-----------------|
Добавлено: 01.11.2013
Другие материалы по этой песне:
  • Аккорды и текст

Страница создана 01.11.2013
http://primanota.ru/lagwagon/good-bye-chords.htm
Привет, Гость.
Предлагаем пройти революционный курс по гитаре.
Подарок от PrimaNota.Ru, забирай!