PrimaNota.ru - самый крупный в мире бесплатный архив песенных текстов, аккордов, табулатур и нот


Lagwagon - Going South - таба, видео

Регистрация Запомнить меня
Войти через:  Facebook Google Twitter Vk Yandex Mail.ru

Lagwagon - Going South - таба, видео

Печатать
Просмотров: 105
Уроки эстрадного вокала в Санкт-Петербурге
intro:
e-|-------------------------------------------------------------------------|
B-|-------------------------------------------------------------------------|
G-|-12-12-12-12-7-7-7-7-5-5-4-4-5-5-4-4-12-12-12-12-7-7-7-7-5-5-4-4-5-5-4-4-|
D-|-12-12-12-12-7-7-7-7-5-5-4-4-5-5-4-4-12-12-12-12-7-7-7-7-5-5-4-4-5-5-4-4-|
A-|-10-10-10-10-5-5-5-5-3-3-2-2-3-3-2-2-10-10-10-10-5-5-5-5-3-3-2-2-3-3-2-2-|
E-|-------------------------------------------------------------------------|

verse:
e-|-----------------------------------------------------|
B-|-----------------------------------------------------|
G-|-----------------------------------------------------|
D-|---------------7-x-x-x-7-7-7-x-x-5-x-x-4-x-x-5-x-x-4-|
A-|-5-x-x-x-5-5-5-5-x-x-x-5-5-5-x-x-3-x-x-2-x-x-3-x-x-2-|
E-|-3-x-x-x-3-3-3---------------------------------------|

first chorus:
e-|-------------------------------------------------------------------------
B-|-------------------------------------------------------------------------
G-|---------14-16-14-12-12-12-12-12-11-11-11-11-11-14-14-14-14-14-13-13-13--
D-|-7-7-7-7-xx-xx-xx-xx-xx-xx-xx-xx-xx-xx-xx-xx-xx-xx-xx-xx-xx-xx-xx-xx-xx--
A-|-5-5-5-5-12-14-12-10-10-10-10-10--9--9--9--9--9-12-12-12-12-12-11-11-11--
E-|-------------------------------------------------------------------------

e-|---------------------------------------------|
B-|---------------------------------------------|
G-|-13-13-12-12-11-11-9-9-5-9-9-7---12-12-12-12-|
D-|-xx-xx-xx-xx-xx-xx-x-x-x-x-x-x---xx-xx-xx-xx-|
A-|-11-11-10-10--9--9-7-7-3-7-7-5-5-10-10-10-10-|
E-|-------------------------------3-------------|

2nd chorus:
e-|-------------------------------------------------------------------------
B-|-------------------------------------------------------------------------
G-|---------12-12-12-12-12-11-11-11-11-11-14-14-14-14-14-13-13-13-13-13-----
D-|-7-7-7-7-xx-xx-xx-xx-xx-xx-xx-xx-xx-xx-xx-xx-xx-xx-xx-xx-xx-xx-xx-xx-----
A-|-5-5-5-5-10-10-10-10-10--9--9--9--9--9-12-12-12-12-12-11-11-11-11-11-----
E-|-------------------------------------------------------------------------

e-|-------------------------------------------------------------------------|
B-|-------------------------------------------------------------------------|
G-|-12-12-11-11-9-9-7-7-12-12-11-11-9-9-7-7-7-7-5-5-7-7-5-5-5-5-4-4-5-4-2---|
D-|-xx-xx-xx-xx-x-x-x-x-xx-xx-xx-xx-x-x-x-x-x-x-x-x-x-x-x-x-5-5-4-4-5-4-2-5-|
A-|-10-10--9--9-7-7-5-5-10-10--9--9-7-7-5-5-5-5-3-3-5-5-3-3-3-3-2-2-3-2-0-5-|
E-|-----------------------------------------------------------------------3-|

bridge:
e-|-----------------------------------------------------------------------|
B-|-----------------------------8-----------------6-----------------8-----|
G-|-----------------7-7-7-----7---7---5-5-5-----5---5---7-7-7-----7---7---|
D-|-5-5-5-----5-----7-7-7---5-------5-5-5-5---3-------3-7-7-7---5-------5-|
A-|-5-5-5-5-5---5---5-5-5-5-----------3-3-3-3-----------5-5-5-5-----------|
E-|-3-3-3---------3-------------------------------------------------------|
then after you play this twice you just strum the chords...
and end bridge with this...
e-|---------------------------------------|
B-|-----------------------------------6-7-|
G-|-------------------------------5-7-----|
D-|-5-5-4-4-5-5-4-4-7-7-7---5-6-7---------|
A-|-3-3-2-2-3-3-2-2-5-5-5-5---------------|
E-|---------------------------------------|

final chorus:
e-|-------------------------------------------------------------------------
B-|-------------------------------------------------------------------------
G-|-12-12-12-12-12-11-11-11-11-11-14-14-14-14-14-13-13-13-13-13-12-12-11-11-
D-|-xx-xx-xx-xx-xx-xx-xx-xx-xx-xx-xx-xx-xx-xx-xx-xx-xx-xx-xx-xx-xx-xx-xx-xx-
A-|-10-10-10-10-10--9--9--9--9--9-12-12-12-12-12-11-11-11-11-11-10-10--9--9-
E-|-------------------------------------------------------------------------

e-|-----------------------------|
B-|-----------------------------|
G-|-10-10-9-9-8-8-7-7-----------|
D-|-xx-xx-x-x-x-x-x-x-7-6-------|
A-|--8--8-7-7-6-6-5-5-5-4-7-5-5-|
E-|-----------------------5-3-3-|
Добавлено: 25.07.2013
Другие материалы по этой песне:
  • Аккорды и текст

Страница создана 25.07.2013
http://primanota.ru/lagwagon/going-south-chords.htm
Привет, Гость.
Предлагаем пройти революционный курс по гитаре.
Подарок от PrimaNota.Ru, забирай!