PrimaNota.ru - самый крупный в мире бесплатный архив песенных текстов, аккордов, табулатур и нот


Lagwagon - Failure - текст песни, таба, видео

Регистрация Запомнить меня
Войти через:  Facebook Google Twitter Vk Yandex Mail.ru

Lagwagon - Failure - текст песни, таба, видео

Печатать
Просмотров: 99
Intro: x 4    
                       Second time guitar 2 plays:
e|-4------4--------|   |----------------|
B|-4------4--------|   |----------------|
G|-5------4-----4--|   |----------------|
D|-4------4---4----|   |--6-6-6---------|
A|-6------6--------|   |--4-4-4---------|
E|-4------4--------|   |----------------|

Verse : Gtr. 2 play high note in brackets
e|-----------------------------------------------|
B|----------------------(6)----------------------|
G|-6-6-6-6-6-6-------------------------3-3-3-3-3-|
D|-6-6-6-6-6-6-6-6-6-6-6-6-4-4-4-4-4-4-3-3-3-3-3-|
A|-4-4-4-4-4-4-6-6-6-6-6-6-4-4-4-4-4-4-1-1-1-1-1-|
E|-------------4-4-4-4-4-4-2-2-2-2-2-2-----------|

                           p.m.^   ^^^^   ^^^^  ^^^^^^^^ 
e|-------------------------------------------------------|
B|-------------------------------------------------------|
G|-6-6-6-6-6-6-------------------------------------------|
D|-6-6-6-6-6-6-6-6-6-6-6-6------4------4------4----------|
A|-4-4-4-4-4-4-6-6-6-6-6-6--4-4-4--4-4-4--4-4-4--9-9-9-7-|
E|-------------4-4-4-4-4-4--2-2-2--2-2-2--2-2-2--7-7-7-5-|

e|---------------------|
B|---------------------|
G|-------8-------------|
D|-8-----8----4-----6--|
A|-8-----6----4-----6--|
E|-6----------2-----4--|

e|-----------------------------------------------|
B|-----------------------------------------------|
G|-6-6-6-6-6-6-------------------------3-3-3-3-3-|
D|-6-6-6-6-6-6-6-6-6-6-6-6-4-4-4-4-4-4-3-3-3-3-3-|
A|-4-4-4-4-4-4-6-6-6-6-6-6-4-4-4-4-4-4-1-1-1-1-1-|
E|-------------4-4-4-4-4-4-2-2-2-2-2-2-----------|

                           p.m..   ....   ....  ........ 
e|-------------------------------------------------------|
B|-------------------------------------------------------|
G|-6-6-6-6-6-6-------------------------------------------|
D|-6-6-6-6-6-6-6-6-6-6-6-6------4------4-----------------|
A|-4-4-4-4-4-4-6-6-6-6-6-6--4-4-4--4-4-4--4-4-4--9-9-9-7-|
E|-------------4-4-4-4-4-4--2-2-2--2-2-2--2-2-2--7-7-7-5-|

e|------------2--------|
B|------------2--------|
G|-------8----3--------|
D|-8-----8----4-----6--|
A|-8-----6----4-----6--|
E|-6----------2-----4--|

Chorus :
e|-------------------------------||-------------|
B|-------------------------------||-------------|
G|*-6---------------------8-8---*||-6------6----|
D|--6-6-6--8-8-6-6--4-8-8-8-8-6--||-6----6-6----|
A|*-4-6-6--8-8-6-6--4-8-8-6-6-6-*||-4----6-4----|
E|----4-4--6-6-4-4--2-6-6-----4--||------4------|

e|-----------------------------------------------|
B|-----------------------------------------------|
G|-6-6-6-6-6-6-------------------------3-3-3-3-3-|
D|-6-6-6-6-6-6-6-6-6-6-6-6-4-4-4-4-4-4-3-3-3-3-3-|
A|-4-4-4-4-4-4-6-6-6-6-6-6-4-4-4-4-4-4-1-1-1-1-1-|
E|-------------4-4-4-4-4-4-2-2-2-2-2-2-----------|

                           p.m..   ....   ....  ........ 
e|-------------------------------------------------------|
B|-------------------------------------------------------|
G|-6-6-6-6-6-6-------------------------------------------|
D|-6-6-6-6-6-6-6-6-6-6-6-6------4------4------4----------|
A|-4-4-4-4-4-4-6-6-6-6-6-6--4-4-4--4-4-4--4-4-4--9-9-9-7-|
E|-------------4-4-4-4-4-4--2-2-2--2-2-2--2-2-2--7-7-7-5-|

e|---------------------|
B|---------------------|
G|-------8-------------|
D|-8-----8----4-----6--|
A|-8-----6----4-----6--|
E|-6----------2-----4--|

e|---------------------------------------------------------|
B|---------------------------------------------------------|
G|-6-6-6-6------------------------------------8-8-8--------|
D|-6-6-6-6-6-6-6--8-8-8-6-6-6-6-4-4-4-4-8-8-8-8-8-8-6-6-6--|
A|-4-4-4-4-6-6-6--8-8-8-6-6-6-6-4-4-4-4-8-8-8-6-6-6-6-6-6--|
E|---------4-4-4--6-6-6-4-4-4-4-2-2-2-2-6-6-6-------4-4-4--|

  p.m.^^^^^^^^^^^^^^^^^^^^^^^^^
e|----------------------------------------------------------------|
B|----------------------------------------------------------------|
G|-6-6-6-6--------------------------------8-----6---------------8-|
D|-6-6-6-6-6-6-6-6-8-8-8-8-8-8-8-8--4-----8-----6---6-----4-----8-|
A|-4-4-4-4-6-6-6-6-8-8-8-8-8-8-8-8--4-----6-----4---6-----4-----6-|
E|---------4-4-4-4-6-6-6-6-6-6-6-6--2---------------4-----2-------|

                                      p.m.^^^^^^^^^^^^^^^^^^^^^^
e|---------------------------------------------------------------|
B|---------------------------------------------------------------|
G|-6----------------8-----6--------------------------------------|
D|-6-----6----4-----8-----6-----6------4-4-4-4-4-4-6-6-6-6-6-6-6-|
A|-4-----6----4-----6-----4-----6------4-4-4-4-4-4-6-6-6-6-6-6-6-|
E|-------4----2-----------------4------2-2-2-2-2-2-4-4-4-4-4-4-4-|

Guitar Solo: 
Gtr. 1 :
e|------------------------------------------------4h5p4h5p4h5p4h5--|
B|-----------------6---6----------6-7-6----------------------------|
G|-6---6-8~~---6h8---6---8~~--6h8-------8-6-5-6~~------------------|
D|---6-------------------------------------------------------------|
A|-----------------------------------------------------------------|
E|-----------------------------------------------------------------|

e|------------------------------------|
B|----------------6-7-6---------------|
G|-6---6-8~~--6h8-------8~~--6-8-6~~--|
D|---6--------------------------------|
A|------------------------------------|
E|------------------------------------|

e|-----------------------------------------------|
B|-----------------------------------------------|
G|-6-6-6-6-6-6-------------------------3-3-3-3-3-|
D|-6-6-6-6-6-6-6-6-6-6-6-6-4-4-4-4-4-4-3-3-3-3-3-|
A|-4-4-4-4-4-4-6-6-6-6-6-6-4-4-4-4-4-4-1-1-1-1-1-|
E|-------------4-4-4-4-4-4-2-2-2-2-2-2-----------|

                           p.m.^   ^^^^   ^^^^  ^^^^^^^^ 
e|-------------------------------------------------------|
B|-------------------------------------------------------|
G|-6-6-6-6-6-6-------------------------------------------|
D|-6-6-6-6-6-6-6-6-6-6-6-6------4------4------4----------|
A|-4-4-4-4-4-4-6-6-6-6-6-6--4-4-4--4-4-4--4-4-4--9-9-9-7-|
E|-------------4-4-4-4-4-4--2-2-2--2-2-2--2-2-2--7-7-7-5-|

Last Chorus:
Gtr. 1 play this, whenever appropriate, so listen to the song
e|----------------------------|
B|-----------6------------6---|
G|--6-6--6h8----6-6-6-6h8-----|
D|----------------------------|
A|----------------------------|
E|----------------------------|

Gtr. 2 play this:
e|-------------------------------||--------------------------------|
B|-------------------------------||--------------------------------|
G|*-6---------------------8-8---*||-6--------------11-11-11-10--885|
D|--6-6-6--8-8-6-6--4-8-8-8-8-6--||-6-6-6--8-8-6-6--------------885|
A|*-4-6-6--8-8-6-6--4-8-8-6-6-6-*||-4-6-6--8-8-6-6--9--9--9--8--663|
E|----4-4--6-6-4-4--2-6-6-----4--||---4-4--6-6-4-4-----------------|

  p.m.^^^^^^^^^^^^^^^^^^^^^^^^^
e|---------------------------------||---------------------------------|
B|---------------------------------||---------------------------------|
G|-6-6-6-6-------------------------||*-----------8-8-8-8-8-6-6-6-6-6-6|
D|-6-6-6-6-6-6-6-6-8-8-8-8-8-8-8-8-||--4-4-4-4-4-8-8-8-8-8-6-6-6-6-6-6|
A|-4-4-4-4-6-6-6-6-8-8-8-8-8-8-8-8-||*-4-4-4-4-4-6-6-6-6-6-4-4-4-4-4-4|
E|---------4-4-4-4-6-6-6-6-6-6-6-6-||--2-2-2-2-2----------------------|

e|----------------||-------------------------------------------------|
B|----------------||-------------------------------------------------|
G|-------------*--||-------------------------6~-------6--------------|
D|-6-6-6-6-6-6--x3||-4-4-4-4-4-4-6-6-6-6-6-6-6~----6--6---pickslides-|
A|-6-6-6-6-6-6-*--||-4-4-4-4-4-4-6-6-6-6-6-6-4~----6--4--------------|
E|-4-4-4-4-4-4----||-2-2-2-2-2-2-4-4-4-4-4-4-------4-----------------|

Добавлено: 31.10.2013
Другие материалы по этой песне:
  • Аккорды и текст

Страница создана 26.03.2012
http://primanota.ru/lagwagon/failure-chords.htm
Привет, Гость.
Предлагаем пройти революционный курс по гитаре.
Подарок от PrimaNota.Ru, забирай!