PrimaNota.ru - самый крупный в мире бесплатный архив песенных текстов, аккордов, табулатур и нот


Лагерные песни - Ухожу я юность хоронить - аккорды и текст

Регистрация Запомнить меня
Войти через:  Facebook Google Twitter Vk Yandex Mail.ru

Лагерные песни - Ухожу я юность хоронить - аккорды и текст

Печатать
Просмотров: 121
Ухожу я юность хоронить
Лагерные песни
Честно говоря, я не знаю, кто в оригинале исполняет эту песню, но за душу берет 
с первого куплета. Я впервые услышал ее на кассете ("Красная плесень"!!!), на гитаре
до меня ее никто не играл.

Итак, можно играть в различных вариациях: всю песню можно играть перебором 53231323, 
либо боем v v*  ^ v ^ v* ^ (v- удар вниз, ^ - удар вверх, * - с приглушением). 

Но я хочу вам предложить объединить это, для начала первый куплет сыграем перебором:

      Am                                             E               Am               
E---------------0---------------0---------------0---------------0--------
H|-------1-------1-------1-------1-------1-------1-------0-------0-------1-------1----
G|-----2---2---2---2---2---2---2---2---2---2---2---2---1---1---1---1---2---2---2---2--
D-------------------------------------------------------------------------
A|----0--------------0---------------0---------------2---------------0----------------
E-------------------------------------------------------------------------
                                     Мама,       не ругай меня-я  я  пья-яный.

      Dm             E               Am              F               С
E---------------0---------------0---------------1---------------0--------
H|-------3-------3-------0-------0-------1-------1-------1-------1-------1-------1----
G|-----2---2---2---2---1---1---1---1---2---2---2---2---2---2---2---2---0---0---0---0--
D-------------------------------------------------------------------------
A|----0--------------2---------------0---------------3---------------3----------------
E-------------------------------------------------------------------------
       Я сегодня    пил   и   буду   пить,           Потому   что    завтра-а

      E              Am              F               E               Am
E---------------0---------------1---------------0---------------0--------
H|-------0-------0-------1-------1-------1-------1-------0-------0-------1-------1----
G|-----1---1---1---1---2---2---2---2---2---2---2---2---1---1---1---1---2---2---2---2--
D-------------------------------------------------------------------------
A|----2--------------0---------------3---------------2---------------0----------------
E-------------------------------------------------------------------------
             утром   ра-анни-им       Ухожу  я   в   армию           служить.

      F              С               E               Am              F
E---------------0---------------0---------------0---------------1--------
H|-------1-------1-------1-------1-------0-------0-------1-------1-------1-------1----
G|-----2---2---2---2---0---0---0---0---1---1---1---1---2---2---2---2---2---2---2---2--
D-------------------------------------------------------------------------
A|----3--------------3---------------2---------------0---------------3----------------
E-------------------------------------------------------------------------
      Потому   что    завтра-а              утром    ра-анни-им      Ухожу    я    в     

      E              Am               
E---------------0-------------0--
H|-------0-------0-------1-------1--------1---
G|-----1---1---1---1---2---2---2---2-----2----
D---------------------------2-----
A|----2--------------0-----------------0------
E-------------------------0-------
      армию          служить.

Ну, а дальше начинайте играть боем следующих два куплета со средним темпом, не очень 
громко, не надо рвать струны. И аналогично пойте, кстати, слова в песни сильно тянуть 
не старайтесь. А если вы слышали эту песьню, то мне за вас спокойнее... 

   Am     E               Am
2. Мама, так не будет той девчонки,
   Dm          E           Am
   Ведь она не станет долго ждать.
   F          C       E        Am
   Как бы мне сегодня не заплакать
   F     E          Am 
   Милая родная моя мать.
   F          C       E        Am
   Как бы мне сегодня не заплакать
   F     E          Am 
   Милая родная моя мать.

   Am    E              Am
3. Мама, не ругай меня я пьяный.
   Dm        E          Am
   Я сегодня пил и буту пить,
   F          C      E     Am
   Потому что завтра утром ранним
   F       E      Am
   Ухожу я юность хоронить.
   F          C      E     Am
   Потому что завтра утром ранним
   F       E      Am
   Ухожу я юность хоронить.

   Проигрыш: F C E Am F E Am

Закончить можно так: когда переходите на F, то на этом аккорде играете первую половинку 
боя, а вторую половинку боя - на Е, и на Am заканчиваете.
Добавлено: 02.04.2016
Другие материалы по этой песне:
  • Аккорды и текст

Страница создана 02.04.2016
http://primanota.ru/lagernye-pesni/uxozhu-ya-yunost-xoronit-chords.htm
Привет, Гость.
Предлагаем пройти революционный курс по гитаре.
Подарок от PrimaNota.Ru, забирай!