PrimaNota.ru - самый крупный в мире бесплатный архив песенных текстов, аккордов, табулатур и нот


The Lafontaines - Under The Storm - таба, видео

Регистрация Запомнить меня
Войти через:  Facebook Google Twitter Vk Yandex Mail.ru

The Lafontaines - Under The Storm - таба, видео

Печатать
Просмотров: 55
Уроки эстрадного вокала в Санкт-Петербурге
-------------------------------------------------------------------------------
                             UNDER THE STORM - The LaFontaines
-------------------------------------------------------------------------------
Tabbed by:


Tuning:Standard

Intro/Chorus:

e|5----------------------------------------5---------------------------------|
B|5----------------------------------------5---------------------------------|
G|5----------------------------------------5---------------------------------|
D|7----------------------------------------7---------------------------------|
A|7----------------------------------------7---------------------------------|
E|5----------------------------------------5---------------------------------|

e|---------------------------------------------------------------------------|
B|------------8-5-----------------------------8-5----------------------------|
G|----5-5-7-7---------5-5-4-4---------5-5-7-7---------5-5-4-4---------5-5-7-7|
D|7-7-------------7-7---------5---7-7-------------7-7---------5---7-7--------|
A|------------------------------7-------------------------------7------------|
E|---------------------------------------------------------------------------|

e|--------------------------------------------------5------------------------|
B|-8-5----------------------------8-5---------------5------------------------|
G|--------5-5-4-4---------5-5-7-7---------5-5-4-----5------------------------|
D|----7-7---------5---7-7-------------7-7-----------7------------------------|
A|------------------7-------------------------------7------------------------|
E|--------------------------------------------------5------------------------|

Verse 1:

e|---------------------------------------------------------------------------|
B|---------------------------------------------------------------------------|
G|---------------------------------------------------------------------------|
D|------------3-3-3-6-7-------------------------2----7------------3-3-3-6----|
A|------------3-3-3-6-7-------------------------2----7------------3-3-3-6----|
E|------------1-1-1-4-5-------------------------0----5------------1-1-1-4----|

Chorus:

e|5----------------------------------------5---------------------------------|
B|5----------------------------------------5---------------------------------|
G|5----------------------------------------5---------------------------------|
D|7----------------------------------------7---------------------------------|
A|7----------------------------------------7---------------------------------|
E|5----------------------------------------5---------------------------------|

e|---------------------------------------------------------------------------|
B|------------8-5-----------------------------8-5----------------------------|
G|----5-5-7-7---------5-5-4-4---------5-5-7-7---------5-5-4-4---------5-5-7-7|
D|7-7-------------7-7---------5---7-7-------------7-7---------5---7-7--------|
A|------------------------------7-------------------------------7------------|
E|---------------------------------------------------------------------------|

e|--------------------------------------------------5------------------------|
B|-8-5----------------------------8-5---------------5------------------------|
G|--------5-5-4-4---------5-5-7-7---------5-5-4-----5------------------------|
D|----7-7---------5---7-7-------------7-7-----------7------------------------|
A|------------------7-------------------------------7------------------------|
E|--------------------------------------------------5------------------------|

Verse 2: 

e|-------------------5-5-5-------5-5-5--------5-5-5--------------------------|
B|-------------------5-5-5-------5-5-5--------5-5-5--------------------------|
G|-------------------5-5-5-------5-5-5--------5-5-5--------------------------|
D|-----------3-3-3-6--------------------------------------2------------------|
A|-----------3-3-3-6-------0-3-5-------0-3-5--------0-3-5-2------------------|
E|-----------1-1-1-4--------------------------------------0------------------|

e|--5-5-5-------5-5-5-------5-5-5--------------------------------------------|
B|--5-5-5-------5-5-5-------5-5-5--------------------------------------------|
G|--5-5-5-------5-5-5-------5-5-5--------------------------------------------|
D|---------------------------------------------------------------------------|
A|--------0-3-5-------0-6-5-------0-3-5--------------------------------------|
E|--------------------------------------1-1-1-4------------------------------|

Chorus:

e|-5------------------------------------5------------------------------------|
B|-5------------------------------------5------------------------------------|
G|-5------------------------------------5------------------------------------|
D|-7------------------------------------7------------------------------------|
A|-7------------------------------------7------------------------------------|
E|-5------------------------------------5------------------------------------|

Bridge:

e|-------x-x-x-x-------x-x------x-x-x-x---------------x-x-x-x-------x-x------|
B|-------x-x-x-x-------x-x------x-x-x-x---------------x-x-x-x-------x-x------|
G|-------x-x-x-x-------x-x------x-x-x-x---------------x-x-x-x-------x-x------|
D|-7-7-7-x-x-x-x-7-7-7-x-x--7-7-x-x-x-x-7-7-7---3-3-3-x-x-x-x-3-3-3-x-x-6-6-4|
A|-7-7-7-x-x-x-x-7-7-7-x-x--7-7-x-x-x-x-7-7-7---3-3-3-x-x-x-x-3-3-3-x-x-6-6-6|
E|-5-5-5-x-x-x-x-5-5-5-x-x--5-5-x-x-x-x-5-5-5---1-1-1-x-x-x-x-1-1-1-x-x-4-4-4|

e|-x-x-x-x-------------------------------------------------------------------|
B|-x-x-x-x-------------------------------------------------------------------|
G|-x-x-x-x-------------------------------------------------------------------|
D|-x-x-x-x-6-6-6--/7---------------------------------------------------------|
A|-x-x-x-x-6-6-6-------------------------------------------------------------|
E|-x-x-x-x-4-4-4-------------------------------------------------------------|

Outro:

e|---------------------------------------------------------------------------|
B|-----1-----1----1-----1-----1-----1-----1-1---------------1-----1-----1----|
G|-----2-----2----2-----2-----2-----2-----2-2---------------2-----2-----2----|
D|-----2------------------------0-0-------------------------2----------------|
A|-0-0--------------------------------3-3--------------0-0-------------------|
E|-------3-3--2-2---1-1---0-0-----------------4-4-4-4---------3-3---2-2---1-1|

e|------------------------------------x-x-x-x--------x-x---------------------|
B|-1-----1-----1-----1----------------x-x-x-x--------x-x---------------------|
G|-2-----2-----2-----2----------------x-x-x-x--------x-x---------------------|
D|---------0-0-----------------7-7-7--x-x-x-x--7-7-7-x-x-------7-7-----------|
A|---------------3-3-----------7-7-7--x-x-x-x--7-7-7-x-x-------7-7-----------|
E|---0-0---------------4-4-4-4-5-5-5--x-x-x-x--5-5-5-x-x-------5-5-----------|
************************************

| /   slide up
| \   slide down
| h   hammer-on
| p   pull-off
| ~   vibrato
| +   harmonic
| x   Mute note
| b   Bend
| pb  Pre-bend
| br  Bend release
| pbr Pre-bend release
| brb Bend release bend

***********************
Добавлено: 15.08.2015
Вам также может быть интересно:
Другие материалы по этой песне:
  • Аккорды и текст

Страница создана 15.08.2015
http://primanota.ru/lafontaines/under-storm-chords.htm
Привет, Гость.
Предлагаем пройти революционный курс по гитаре.
Подарок от PrimaNota.Ru, забирай!