PrimaNota.ru - самый крупный в мире бесплатный архив песенных текстов, аккордов, табулатур и нот


The Lafontaines - Junior Dragon - таба, видео

Регистрация Запомнить меня
Войти через:  Facebook Google Twitter Vk Yandex Mail.ru

The Lafontaines - Junior Dragon - таба, видео

Печатать
Просмотров: 39
Song: Junior Dragon
Artist: The LaFontaines
Album: Class
Tabbed by: Isaac Davie (@instructio4 on twitter)


Tuning: Standard


Intro: (0:07)

e|----------------------------------------|----------------------------------|
B|------------------------------------(x3)|----------------------------------|
G|----------------------------------------|--------44444444--66666666--------|
D|------9-------9-------5--4--2-----------|----------------------------------|
A|----------5--------------------5--4-----|--------22222222--44444444--------|
E|--7---------------3---------------------|----------------------------------|


Verse: (0:21)

e|----------------|------------------|------------------|--------------------|
B|----------------|------------------|------------------|--------------------|
G|----------------|------------------|------------------|--------------------|
D|----------------|------------------|------------------|----------55-44-----|
A|----------------|----------5-------|---------------5--|--------------------|
E|--7----------5--|--7----------2--5-|--7---------------|--7-------33-22-----|

e|--------------------------------------|------------------------------------|
B|--------------------------------------|--------------------------------6666|
G|--------------------------------------|------------------------------------|
D|--------------------------------------|------------------------------------|
A|--2--5-----2--5-----2--5-----2--5-----|--2--5-----2--5-----2--5-----2------|
E|--------5--------5--------5--------5--|--------5--------5--------5---------|

e|--------------------------------------|-------------------------555-77/----|
B|--------------------------------------|--------------------7777------------|
G|--------------------------------------|------------------------------------|
D|--------------------------------------|------------------------------------|
A|--2--5-----2--5-----2--5-----2--5-----|--2--5-----2--5---------------------|
E|--------5--------5--------5--------5--|--------5--------5------------------|


Pre-Chorus: (0:50)

e|--------------------------------------|--------------------------555-77/---|
B|------7--------7--------7-------------|------7--------7-----7777-----------|
G|------9b-------9b-------9b------------|------9b-------9b-------------------| x2
D|--9--------9--------9-----------------|--9--------9------------------------|
A|--9--------9--------9-----------------|--9--------9------------------------|
E|--7--------7--------7--------5-7-3-2--|--7--------7------------------------|


Chorus: (1:04)

e|------------------------------|--------------------------------------------|
B|------------------------(x3)--|--------------------------------------------|
G|--------777-------------------|--------------------------------------------|
D|--99999-777---55555-444-------|--55555555---77777777-----------------------|
A|--99999-555---55555-444-------|--55555555---77777777-----------------------|
E|--77777-------33333-222-------|--33333333---55555555-----------------------|


Verse x1 (1:19)


Pre-Chorus x1 (1:47)


Chorus x1 (2:02)


Bridge: (2:17)

e|------------------------------------------------ 5 ------------------------|
B|-- just play around with the D Major chord------ 7 ------------------------|
G|------------------------------------------------ 7 ------------------------|
D|------------------------------------------------ 7 ------------------------|
A|------------------------------------------------ 5 ------------------------|
E|---------------------------------------------------------------------------|


Intro x1 (2:31)


Chorus x1 (2:45)


Outro (2:59)

e|-----------------------|-----------------------|
B|-----------------------|-----------------------|
G|-----------------------|-----------------------|
D|--55555555---77777777--|--55555555---44444444--|
A|--55555555---77777777--|--55555555---44444444--|
E|--33333333---55555555--|--33333333---22222222--|

e|------------------------------------------|-------555-77/------------------|
B|------------------------------------(x4)--|--7777--------------------------|
G|------------------------------------------|--------------------------------|
D|------9-------9-------5--4--2-------------|--------------------------------|
A|----------5--------------------5--4-------|--------------------------------|
E|--7---------------3-----------------------|--------------------------------|

| /   slide up
| \   slide down
| h   hammer-on
| p   pull-off
| ~   vibrato
| +   harmonic
| x   Mute note
| b   Bend
| pb  Pre-bend
| br  Bend release
| pbr Pre-bend release
| brb Bend release bend
Добавлено: 25.10.2015
Вам также может быть интересно:
Другие материалы по этой песне:
  • Аккорды и текст

Страница создана 25.10.2015
http://primanota.ru/lafontaines/junior-dragon-chords.htm
Привет, Гость.
Предлагаем пройти революционный курс по гитаре.
Подарок от PrimaNota.Ru, забирай!