PrimaNota.ru - самый крупный в мире бесплатный архив песенных текстов, аккордов, табулатур и нот


Ladyhawke - Blue Eyes - текст песни, таба, видео

Регистрация Запомнить меня
Войти через:  Facebook Google Twitter Vk Yandex Mail.ru

Ladyhawke - Blue Eyes - текст песни, таба, видео

Печатать
Просмотров: 76
A fairly simple song with two repetitive riffs and one solo part

Standard tuning and a distorted tone

At 0:28
Pre-Chorus
E|---------------------|
B|---------------------|
G|---------------------|
D|--7---------4--------|      (Let both chords ring out)
A|--5---------2--------|
E|---------------------|

There is a little riff you can play after the pre-chorus which goes

E|---------------------|
B|---------------------|
G|---------------------|
D|-9----7-7-9----------|      (Let both chords ring out)
A|-7----5-5-7----------|
E|---------------------|

Chorus

E|---------------------|
B|---------------------|
G|---------------------|
D|--7--9-9-9-----------|
A|--5--7-7-7-----------|
E|---------------------|

Play through three times then end with

E|--------|
B|--------|
G|--------|
D|--7--9--| (Let ring)
A|--5--7--|
E|--------|

In the middle I believe just before the solo where you play the entire chorus through twice. 

Solo!

E|-----------------------|
B|-----------------------|
G|--------9--7(b)--------|   (Solo Part I)
D|--9--9--------4--5--7--|
A|-----------------------|
E|-----------------------|

E|--------------------------------------|
B|--------------------------------------|
G|--------9---7----9--7(b)--9--7(b)-----|
D|--9--9--------------------------------| (Solo Part II)
A|--------------------------------------|
E|--------------------------------------|

So you play part I twice then part II once then part I again.

Play the pre-chorus straight after the solo, then the chorus

End on 

E|---------------------|
B|---------------------|
G|---------------------|
D|--4------------------|      (Let chord ring out)
A|--2------------------|
E|---------------------|

Finito! :)
Добавлено: 01.07.2013
Другие материалы по этой песне:
  • Аккорды и текст

Страница создана 01.07.2013
http://primanota.ru/ladyhawke/blue-eyes-chords.htm
Привет, Гость.
Предлагаем пройти революционный курс по гитаре.
Подарок от PrimaNota.Ru, забирай!