PrimaNota.ru - самый крупный в мире бесплатный архив песенных текстов, аккордов, табулатур и нот


ladybaby - Nippon Manju - таба, видео

Регистрация Запомнить меня
Войти через:  Facebook Google Twitter Vk Yandex Mail.ru

ladybaby - Nippon Manju - таба, видео

Печатать
Просмотров: 92
-------------------------------------------------------------------------------
                             Ladybaby - Nippon Manju
-------------------------------------------------------------------------------
Tabbed by: André Oksnes (MetallAndy)
Video of me playing it: https://www.youtube.com/watch?v=ogNXVJq9xcY

Tuning: Drop-C


************************************

| /   slide up
| \   slide down
| h   hammer-on
| p   pull-off
| ~   vibrato
| x   Mute note
| b   Bend
| br  Bend release

************************************

INTRO
E|-------------|
B|-------------|
G|-------------|
D|-------7-----|
A|--4----5-----|
E|--4----------|

E|----------------------------------------|
B|----------------------------------------|
G|----------------------------------------|
D|----------------------------------------|
A|-4-4-4-4-4-4-4-4-4-4-4-4-4-4-4-4--------|
E|-4-4-4-4-4-4-4-4-4-4-4-4-4-4-4-4--------|
     x x x x x x x x x x x x x x x

E|----------------------------------------|
B|----------------------------------------|
G|----------------------------------------|
D|-7-7-7-7-7-7-7-7-7-7-7-7-7--------------|
A|-5-5-5-5-5-5-5-5-5-5-5-5-5--------------|
E|----------------------------------------|
     x x x x x x x x x x x x 

MAIN
FIG.1
E|-------------------------------|\
B|-------------------------------| \
G|-------------------------------|  \
D|-------------------------------|   \
A|-4--4-2-4--4--------0---0-2----|    \
E|-4--4-2-4--4--4-2-4---4--------|     \
                                        | x2 
E|-------------------------------|     /
B|-------------------------------|    /
G|-------------------------------|   /
D|-7--7-7-7----------------------|  / 
A|-5--5-5-5--9-9------5----------| /
E|-----------9-9--7-9---9-7-9----|/


VERSE
FIG.2
E|-----------------------------------|\
B|-----------------------------------| \
G|-----------------------------------|  \
D|-----------------------------------|   \
A|----------4--4-4--2-4-5-2----------|    \
E|--4-4-4-4-4--4-4--2-4-5-2----------|     \
    x x x x x  x    x x x                   \ 
                                            / X2
E|-----------------------------------|     /
B|-----------------------------------|    /
G|-----------------------------------|   /
D|-----------------------------------|  /
A|----------4--4-4-------------------| /
E|--4-4-4-4-4--4-4--5-4-7-4-5-2-4----|/
    x x x x x  x

FIG.3
E|----------------------------------|\
B|----------------------------------| \
G|----------------------------------|  \
D|----------------------------------|   \
A|----------------------------------|    \
E|-4-4--4-10-9-7-9-4--4-4-2-4-------|     \
                                           | X2
E|----------------------------------|     /
B|----------------------------------|    /
G|----------------------------------|   /
D|----------------------------------|  /
A|----------------------------------| /
E|-4-4--4-10-9-7-9-4--4-7-4-9-------|/

FIG.2
E|-----------------------------------|\
B|-----------------------------------| \
G|-----------------------------------|  \
D|-----------------------------------|   \
A|----------4--4-4--2-4-5-2----------|    \
E|--4-4-4-4-4--4-4--2-4-5-2----------|     \
    x x x x x  x    x x x                   \ 
                                            / X2
E|-----------------------------------|     /
B|-----------------------------------|    /
G|-----------------------------------|   /
D|-----------------------------------|  /
A|----------4--4-4-------------------| /
E|--4-4-4-4-4--4-4--5-4-7-4-5-2-4----|/
    x x x x x  x

FIG.4
E|----------------------------------|
B|----------------------------------| 
G|----------------------------------|  
D|----------------------------------|   
A|----------------------------------|    
E|-4-4--4-10-9-7-9-4--4-4-2-4-------|     
                                           
E|----------------------------------|     
B|----------------------------------|    
G|----------------------------------|   
D|----------------------------------|  
A|----------------------------------| 
E|-4-4--4-10-9-7-9-4--4-7-4-9-------|

E|--------------------------------------|
B|--------------------------------------| 
G|--------------------------------------|  
D|--------------------------------------|   
A|------------------------------4-4-4---|    
E|-4-4--4-10-9-7-9-4--4-4-2-2---4-4-4---|     
                                           
CHORUS
E|----------------------------------------------------|
B|----------------------------------------------------|
G|----------------------------------------------------|
D|--------------------------7-----7-----7-----7-------|
A|-7-----7-----7-----7------5-5-5-5-5-5-5-5-5-5-5-5---|
E|-7-7-7-7-7-7-7-7-7-7-7-7----------------------------|
     x x   x x   x x   x x    x x   x x   x x   x x 

E|-----------------------------|
B|-----------------------------|
G|-----------------------------|
D|-10----10----10----10--------|
A|-8-8-8-8-8-8-8-8-8-8-8-8-----|
E|-----------------------------|
     x x   x x   x x   x x  

E|-----------------------------|
B|-----------------------------|
G|-----------------------------|
D|-11----11-----9-----9--------|
A|-9-9-9-9-9-9--7-7-7-7-7-7----|
E|-----------------------------|
     x x   x x    x x   x x 

E|----------------------------------------|
B|----------------------------------------|
G|----------------------------------------|
D|-----------------4-------------------6--|
A|-2-2-2-2-2-2-2-2-2---4-4-4-4-4-4-4-4-4--|
E|----------------------------------------|
   x x x x x x x x     x x x x x x x x 

E|---------------------------|
B|---------------------------|
G|---------------------------|
D|---------7----------7------|
A|-5-5-5-5-5--5-5-5-5-5------|
E|---------------------------|
   x x x x     x x x x

E|----------------------------------------|
B|----------------------------------------|
G|----------------------------------------|
D|-12--------------------9----------------|   x2
A|-10-10-10-10-10-10-10--7-7-7-7-7-7-7----|
E|----------------------------------------|
      x  x  x  x  x  x     x x x x x x 

CHORUS END
E|-------------------|
B|-------------------|
G|-------------------|
D|-------------------| X7
A|--7----------------|
E|--7-7-7-7-7-7-7----|
      x x x x x x 

E|-------------------|
B|-------------------|
G|-------------------|
D|-------------------| 
A|--7-----------7\---|
E|--7-7-7-7-7-7-7\---|
      x x x x x 


BACK TO MAIN
FIG.1
E|-------------------------------|\
B|-------------------------------| \
G|-------------------------------|  \
D|-------------------------------|   \
A|-4--4-2-4--4--------0---0-2----|    \
E|-4--4-2-4--4--4-2-4---4--------|     \
                                        | x2 
E|-------------------------------|     /
B|-------------------------------|    /
G|-------------------------------|   /
D|-7--7-7-7----------------------|  / 
A|-5--5-5-5--9-9------5----------| /
E|-----------9-9--7-9---9-7-9----|/

2ND VERSE
E|----------------------------------------|
B|----------------------------------------|
G|----------------------------------------|
D|----------------------------------------|
A|-4-4-4-4-4--4-4-4--4-4-4--4-4-4-2-------|
E|-4-4-4-4-4--4-4-4--4-4-4--4-4-4-2-------|
   x x x x x  x x x  x x x  x x x x  

E|---------------------------------------|
B|---------------------------------------|
G|---------------------------------------|
D|---------------------------------------|
A|-4-4-4-4-4--4-4-4--4-4-4-2-4-4---------|
E|-4-4-4-4-4--4-4-4--4-4-4-2-4-4---------|
   x x x x x  x x x  x x x x x x  

FIG.2
E|-----------------------------------|
B|-----------------------------------| 
G|-----------------------------------| 
D|-----------------------------------|   
A|----------4--4-4--2-4-5-2----------|    
E|--4-4-4-4-4--4-4--2-4-5-2----------|     
    x x x x x  x    x x x                     
                                             
E|-----------------------------------|     
B|-----------------------------------|    
G|-----------------------------------|   
D|-----------------------------------|  
A|----------4--4-4-------------------| 
E|--4-4-4-4-4--4-4--5-4-7-4-5-2-4----|
    x x x x x  x

FIG.4
E|----------------------------------|\
B|----------------------------------| \
G|----------------------------------|  \
D|----------------------------------|   \
A|----------------------------------|    \
E|-4-4--4-10-9-7-9-4--4-4-2-4-------|     \
                                           | X2
E|----------------------------------|     /
B|----------------------------------|    /
G|----------------------------------|   /
D|----------------------------------|  /
A|----------------------------------| /
E|-4-4--4-10-9-7-9-4--4-7-4-9-------|/

LEAD 
E|---------9----------------10-------------|
B|-7-------12b(14)----7-----13b(15)--------|
G|-9b(11)-------------9b11-----------------|
D|-----------------------------------------| X4
A|-----------------------------------------|
E|-----------------------------------------|

CHORUS
E|----------------------------------------------------|
B|----------------------------------------------------|
G|----------------------------------------------------|
D|--------------------------7-----7-----7-----7-------|
A|-7-----7-----7-----7------5-5-5-5-5-5-5-5-5-5-5-5---|
E|-7-7-7-7-7-7-7-7-7-7-7-7----------------------------|
     x x   x x   x x   x x    x x   x x   x x   x x

E|-----------------------------|
B|-----------------------------|
G|-----------------------------|
D|-10----10----10----10--------|
A|-8-8-8-8-8-8-8-8-8-8-8-8-----|
E|-----------------------------|
     x x   x x   x x   x x 

E|-----------------------------|
B|-----------------------------|
G|-----------------------------|
D|-11----11-----9-----9--------|
A|-9-9-9-9-9-9--7-7-7-7-7-7----|
E|-----------------------------|
     x x   x x    x x   x x

E|----------------------------------------|
B|----------------------------------------|
G|----------------------------------------|
D|-----------------4-------------------6--|
A|-2-2-2-2-2-2-2-2-2---4-4-4-4-4-4-4-4-4--|
E|----------------------------------------|
   x x x x x x x x      x x x x x x x x 

E|---------------------------|
B|---------------------------|
G|---------------------------|
D|---------7----------7------|
A|-5-5-5-5-5--5-5-5-5-5------|
E|---------------------------|
   x x x x    x x x x  

E|----------------------------------------|
B|----------------------------------------|
G|----------------------------------------|
D|-12--------------------9----------------|   x2
A|-10-10-10-10-10-10-10--7-7-7-7-7-7-7----|
E|----------------------------------------|
      x  x  x  x  x  x     x x x x x x 

CHORUS END
E|-------------------|
B|-------------------|
G|-------------------|
D|-------------------| X7
A|--7----------------|
E|--7-7-7-7-7-7-7----|
      x x x x x x  

E|-------------------|
B|-------------------|
G|-------------------|
D|-------------------| 
A|--7-----------7\---|
E|--7-7-7-7-7-7-7\---|
      x x x x x  

BREAK                         END WITH
E|---------------------|     E|--0----|
B|---------------------|     B|--0----|
G|---------------------|     G|--0----|
D|---------------------| X4  D|--0----|
A|-4-4-3--2-2-1-0------|     A|--0----|
E|-4-4-3--2-2-1-0------|     E|--0----|
   x x x  x x x x 


SOLO RHYTHM
E|-----------------------------------------------------|
B|-----------------------------------------------------|
G|-----------------------------------------------------|
D|-11----11----11----11-----11----11----11----11-------|
A|-9-9-9-9-9-9-9-9-9-9-9-9--8-8-8-8-8-8-8-8-8-8-8-8----|
E|-----------------------------------------------------|
     x x   x x   x x   x x    x x   x x   x x   x x

E|-----------------------------------------------------|
B|-----------------------------------------------------|
G|-----------------------------------------------------|
D|-9-----9-----9-----9------9-----9-----9-----9--------|
A|-7-7-7-7-7-7-7-7-7-7-7-7--6-6-6-6-6-6-6-6-6-6-6-6----|
E|-----------------------------------------------------|
     x x   x x   x x   x x    x x   x x   x x   x x

E|----------------------------------------------------|
B|----------------------------------------------------|
G|----------------------------------------------------|
D|-7-----7-----7-----7------7-----7-----7-----7-------|
A|-5-5-5-5-5-5-5-5-5-5-5-5--4-4-4-4-4-4-4-4-4-4-4-4---|
E|----------------------------------------------------|
     x x   x x   x x   x x    x x   x x   x x   x x

E|----------------------------------------|
B|----------------------------------------|
G|----------------------------------------|
D|-4-----4-----4-----4--------6--4--2-----|
A|-2-2-2-2-2-2-2-2-2-2-2-2----4--2--0--6--|
E|-------------------------------------6--|
     x x   x x   x x   x x    

E|-----------------------------------------------------|
B|-----------------------------------------------------|
G|-----------------------------------------------------|
D|-11----11----11----11-----11----11----11----11-------|
A|-9-9-9-9-9-9-9-9-9-9-9-9--8-8-8-8-8-8-8-8-8-8-8-8----|
E|-----------------------------------------------------|
     x x   x x   x x   x x    x x   x x   x x   x x

E|-----------------------------------------------------|
B|-----------------------------------------------------|
G|-----------------------------------------------------|
D|-9-----9-----9-----9------9-----9-----9-----9--------|
A|-7-7-7-7-7-7-7-7-7-7-7-7--6-6-6-6-6-6-6-6-6-6-6-6----|
E|-----------------------------------------------------|
     x x   x x   x x   x x    x x   x x   x x   x x

E|----------------------------------------------------|
B|----------------------------------------------------|
G|----------------------------------------------------|
D|-7-----7-----7-----7------7-----7-----7-----7-------|
A|-5-5-5-5-5-5-5-5-5-5-5-5--4-4-4-4-4-4-4-4-4-4-4-4---|
E|----------------------------------------------------|
     x x   x x   x x   x x    x x   x x   x x   x x

E|----------------------------------------|
B|----------------------------------------|
G|----------------------------------------|
D|-4-----4-----4-----4-------9-9-9-9------|
A|-2-2-2-2-2-2-2-2-2-2-2-2---7-7-7-7------|
E|----------------------------------------|
     x x   x x   x x   x x   

SOLO
GUITAR 1 (Not 100% sure about the start of the solo)
E|--------14-16-17-16h17p16p14--------------14-------------14-------|
B|-17b19~----------------------17p14-17b19~----17p14-17b19----17p14-|
G|------------------------------------------------------------------|
D|------------------------------------------------------------------|
A|------------------------------------------------------------------|
E|------------------------------------------------------------------|

E|----------------------------------------------------|
B|-17p14----14-17p14-19p14----14-17p14-19p14----14----|
G|-------16----------------16----------------16-------|
D|----------------------------------------------------|
A|----------------------------------------------------|
E|----------------------------------------------------|

E|-----------------------------------------------------|
B|-----------------------------------------------------|
G|-17-16-14-17-16-14-17-16-14-17-16-14--17-16-14-13----|
D|-----------------------------------------------------|
A|-----------------------------------------------------|
E|-----------------------------------------------------|

E|-----------------------------|
B|-----------------------------|
G|-16b18br16-14-13-13~---------|
D|-----------------------------|
A|-----------------------------|
E|-----------------------------|

HARMONY PART
GUITAR 2
E|---------------------------------12/30-(pick-over-the-pickups)---|
B|-7/10-12-14-10-12-14-15-12-14-15---------------------------------|
G|-----------------------------------------------------------------|
D|-----------------------------------------------------------------|
A|-----------------------------------------------------------------|
E|-----------------------------------------------------------------|

GUITAR 1
E|------------------------------9-------9-10--------|
B|-5/7-9-10--7-9-10-12--9-10-12---10-12------12-----|
G|--------------------------------------------------|
D|--------------------------------------------------|
A|--------------------------------------------------|
E|--------------------------------------------------|

E|-9--------------------------------------|
B|---10-12-9-10----9----------------------|
G|--------------11---9h11b14br11~---------|
D|----------------------------------------|
A|----------------------------------------|
E|----------------------------------------|

TREMELO PICK ALL THE WAY
E|-------------------------------------|
B|-------------------------------------|
G|-------------------------------------|
D|-2/30-(pick-over-the-pickups)--------|
A|-------------------------------------|
E|-------------------------------------|

PRE-CHORUS/BRIDGE
E|--------------------------------------------------|
B|--------------------------------------------------|
G|--------------------------------------------------|
D|-------7----10---11---9----4----6----7----9--10---|
A|--7----5----8----9----7----2----4----5----7--8----|
E|--7-----------------------------------------------|

E|------------------------------------|
B|------------------------------------|
G|------------------------------------|
D|-11-----11------11-----11-----------|
A|-9--9-9-9--9-9--8--8-8-8--8-8-------|
E|------------------------------------|
      x x    x x     x x    x x   

E|------------------------------------|
B|------------------------------------|
G|------------------------------------|
D|-9------9-------9------9------------|
A|-7--7-7-7--7-7--6--6-6-6--6-6-------|
E|------------------------------------|
      x x    x x     x x    x x 

E|------------------------------------|
B|------------------------------------|
G|------------------------------------|
D|-7------7-------7------7------------|
A|-5--5-5-5--5-5--4--4-4-4--4-4-------|
E|------------------------------------|
      x x    x x     x x    x x 

E|------------------------------------|
B|------------------------------------|
G|------------------------------------|
D|-4------4--------9-9-9-9-9----------|
A|-2--2-2-2--2-2---7-7-7-7-7----------|
E|------------------------------------|
      x x    x x

CHORUS
E|----------------------------------------------------|
B|----------------------------------------------------|
G|----------------------------------------------------|
D|--------------------------7-----7-----7-----7-------|
A|-7-----7-----7-----7------5-5-5-5-5-5-5-5-5-5-5-5---|
E|-7-7-7-7-7-7-7-7-7-7-7-7----------------------------|
     x x   x x   x x   x x    x x   x x   x x   x x

E|-----------------------------|
B|-----------------------------|
G|-----------------------------|
D|-10----10----10----10--------|
A|-8-8-8-8-8-8-8-8-8-8-8-8-----|
E|-----------------------------|
     x x   x x   x x   x x    

E|-----------------------------|
B|-----------------------------|
G|-----------------------------|
D|-11----11-----9-----9--------|
A|-9-9-9-9-9-9--7-7-7-7-7-7----|
E|-----------------------------|
     x x   x x    x x   x x    

E|----------------------------------------|
B|----------------------------------------|
G|----------------------------------------|
D|-----------------4-------------------6--|
A|-2-2-2-2-2-2-2-2-2---4-4-4-4-4-4-4-4-4--|
E|----------------------------------------|
   x x x x x x x x     x x x x x x x x

E|---------------------------|
B|---------------------------|
G|---------------------------|
D|---------7----------7------|
A|-5-5-5-5-5--5-5-5-5-5------|
E|---------------------------|
   x x x x    x x x x 

E|----------------------------------------|
B|----------------------------------------|
G|----------------------------------------|
D|-12--------------------9----------------|   FULL CHORUS X2
A|-10-10-10-10-10-10-10--7-7-7-7-7-7-7----|
E|----------------------------------------|
      x  x  x  x  x  x     x x x x x x 

CHORUS END
E|-------------------|
B|-------------------|
G|-------------------|
D|-------------------| X31
A|--7----------------|
E|--7-7-7-7-7-7-7----|
      x x x x x x 

LED!!!!!!
E|---------|
B|---------|
G|---------|
D|---------| 
A|--7-7-7--|
E|--7-7-7--|
Добавлено: 27.06.2016
Другие материалы по этой песне:
  • Аккорды и текст

Страница создана 27.06.2016
http://primanota.ru/ladybaby/nippon-manju-chords.htm
Привет, Гость.
Предлагаем пройти революционный курс по гитаре.
Подарок от PrimaNota.Ru, забирай!