PrimaNota.ru - самый крупный в мире бесплатный архив песенных текстов, аккордов, табулатур и нот


Lady Of The Sunshine - White Rose Parade - таба, видео

Регистрация Запомнить меня
Войти через:  Facebook Google Twitter Vk Yandex Mail.ru

Lady Of The Sunshine - White Rose Parade - таба, видео

Печатать
Просмотров: 237
----------------------------------------------------------------------------
                    White Rose Parade - Lady of the Sunshine
----------------------------------------------------------------------------
Tabbed by: Breno
Email: brennansmart@hotmail.com

Please leave a rating, and email me with any problems   :D

Tuning: Drop D (DADGBe)
Capo: 1st Fret (tab relative to capo)

Intro:
Use some distortion, but dont go over the top
e|-------------------------------------------------|
B|-----3/5(bend 5 very slightly)------3\2/15~~(15)-|
G|-------------------------------------------------|
D|-------------------------------------------------|
A|-------------------------------------------------|
D|-------------------------------------------------|

e|-------------------------------------------------|
B|-----3/5(bend slightly)---3\2--------------------|
G|---------------------------------3-3-3-3h4p0-----|
D|-------------------------------------------------|
A|-------------------------------------------------|
D|-------------------------------------------------|

Pre-Verse:
e|----------------------------------------|
B|----------------------------------------|
G|----------------------------------------|
D|---------0--------0--------0-----2/5----| play four times
A|---2-0h2----2-0h2----2-0h2-----2-2/5----|
D|---2--------2--------2---------2-2/5----|

Verse:
e|------------------------------------------------------------|
B|------------------------------------------------------------|
G|------------------------------------------------------------|
D|--2--"wont you take me down, white rose parade"------5-5----|
A|--2--------------------------------------------------5-5----|
D|--2--------------------------------------------------5-5----|

e|------------------------------------------------------------|
B|------------------------------------------------------------|
G|------------------------------------------------------------|
D|--2--"My name's mr. blue, and im calm like rage"------5-5----|
A|--2--------------------------------------------------5-5----|
D|--2--------------------------------------------------5-5----|

e|------------------------------------------------------------|
B|------------------------------------------------------------|
G|------------------------------------------------------------|
D|--2--"Black crows barking, at my feet"---------------5-5----|
A|--2--------------------------------------------------5-5----|
D|--2--------------------------------------------------5-5----|

e|------------------------------------------------------------|
B|------------------------------------------------------------|
G|------------------------------------------------------------|
D|--2--"That black eyed dog won't let me sleep"---x-x-x---x---|
A|--2---------------------------------------------x-x-x---x---|
D|--2---------------------------------------------x-x-x---x---|

Pre-Verse: x2
Verse;

then
Chorus:
e|---------------------------------------|
B|---------------------------------------|
G|---------------------------------------|
D|-----7-7-7-7-7-7-7-7---5-5-5-5-5-------|
A|-----7-7-7-7-7-7-7-7---5-5-5-5-5-------|
D|-----7-7-7-7-7-7-7-7---5-5-5-5-5-------|

e|----------------------------------------|
B|----------------------------------------|
G|----------------------------------------|
D|---------0--------0--------0-----2/5----|
A|---2-0h2----2-0h2----2-0h2-----2-2/5----|
D|---2--------2--------2---------2-2/5----|

e|---------------------------------------|
B|---------------------------------------|
G|---------------------------------------|
D|-----7-7-7-7-7-7-7-7---5-5-5-5-5-------|
A|-----7-7-7-7-7-7-7-7---5-5-5-5-5-------|
D|-----7-7-7-7-7-7-7-7---5-5-5-5-5-------|

Pre-verse: x2

Solo:
e|--------3----------3--------3-------------|
B|----3h5---5-5--3h5---5--3h5---5-5---------|
G|----------------------------------3b------|
D|------------------------------------------|
A|------------------------------------------|
D|------------------------------------------|

e|--------3----------3--------3--5\7-7-7----|
B|----3h5---5-5--3h5---5--3h5---------------|
G|------------------------------------------|
D|------------------------------------------|
A|------------------------------------------|
D|------------------------------------------|

e|------------------------------|
B|------------------------------|
G|------------------------------|
D|--2-2-2/5-2-------------------| Play three times
A|--2-2-2/5-2--7-7-7-7-7-7------|
D|--2-2-2/5-2-------------------|
then
e|------------------------------|
B|------------------------------|
G|------------------------------|
D|--2-2-2/5-2--2-2-2-2-2--------| 
A|--2-2-2/5-2--2-2-2-2-2--------|
D|--2-2-2/5-2--2-2-2-2-2--------|

Intro
Verse
Chorus

End on:
e|---------|
B|---------|
G|---------|
D|----2----|
A|----2----|
D|----2----|

Thanks for having a look!
Please commment/rate!

| /  slide up
| \  slide down
| h  hammer-on
| p  pull-off
| ~  vibrato
| x  Mute note
============================================================================
Добавлено: 20.07.2012
Другие материалы по этой песне:
  • Аккорды и текст

Страница создана 20.07.2012
http://primanota.ru/lady-of-the-sunshine/white-rose-parade-chords.htm
Привет, Гость.
Предлагаем пройти революционный курс по гитаре.
Подарок от PrimaNota.Ru, забирай!