PrimaNota.ru - самый крупный в мире бесплатный архив песенных текстов, аккордов, табулатур и нот


Lady Of The Sunshine - Home Sweet Home - таба, видео

Регистрация Запомнить меня
Войти через:  Facebook Google Twitter Vk Yandex Mail.ru

Lady Of The Sunshine - Home Sweet Home - таба, видео

Печатать
Просмотров: 207
----------------------------------------------------------------------------
                             Home Sweet Home - Lady of the Sunshine
----------------------------------------------------------------------------
Tabbed by: Breno
Email: brennansmart@hotmail.com

Hello there!
This is a new song from Angus Stones new solo project called "Lady of the
Sunshine", off the album "Smoking Gun". This is the first tab on this site
for Lady of the Sunshine, so ill try put some of the other ones up soon. If
you have any problems or corrections, leave a comment or email me.

Tuning: Drop D (DADGBe)
Capo: 1st Fret(tab relative to capo)

Intro and Verse

e|------5------5---7-7-----5-5----5------0-----0---2-2---0-0---0-|
B|---------------------------------------------------------------|
G|--0-0----0-0---0-----0--------0--------------------------------|
D|-----------------------------------0-0---0-0---0-----0-----0---|
A|---------------------------------------------------------------|
D|---------------------------------------------------------------|

Chorus:

e|--0--0--0--0--0--0---5--5--5--5--5--5--5--|
B|--3--3--3--3--3--3---7--7--7--7--7--7--7--|
G|--2--2--2--2--2--2---7--7--7--7--7--7--7--|
D|---------------------5--5--5--5--5--5--5--|
A|------------------------------------------|
D|------------------------------------------|

If you have a second guitar (same tuning/capo) it sounds cool with this played
over the top also
e|------------------------------------------|
B|------------------------------------------|
G|------------------------------------------|
D|--4--4--4--4--4--4---4--4---4---4---4--4--|
A|--0--0--0--0--0--0---x--x--x--x--x--x--x--|
E|--0--0--0--0--0--0---5--5--5--5--5--5--5--|

Also played throughout chorus:
e|--0--0--0--0--0--0---5--5--5--5--5--5--5--------------------|
B|------------------------------------------------------------|

Outro:
e|----5-----5-----0-----0-----5--7---5-----0---2--0---|
B|---7-7---7-7---3-3---3-3---7-7------7---3-3---3--3--|
G|--7---7-7---7-2---2-2---2-7---7--7---7-2---2---2--2-|
D|-5-----5-----0-----0-----5--------5---0-------------|
A|----------------------------------------------------|
D|----------------------------------------------------|


The End   :)
Добавлено: 13.05.2012
Другие материалы по этой песне:
  • Аккорды и текст

Страница создана 13.05.2012
http://primanota.ru/lady-of-the-sunshine/home-sweet-home-chords.htm
Привет, Гость.
Предлагаем пройти революционный курс по гитаре.
Подарок от PrimaNota.Ru, забирай!