PrimaNota.ru - самый крупный в мире бесплатный архив песенных текстов, аккордов, табулатур и нот


Lady Of The Sunshine - Big Jet Plane - таба, видео

Регистрация Запомнить меня
Войти через:  Facebook Google Twitter Vk Yandex Mail.ru

Lady Of The Sunshine - Big Jet Plane - таба, видео

Печатать
Просмотров: 509
Уроки эстрадного вокала в Санкт-Петербурге
Авторы: Angus Stone, Julia Stone

-------------------------------------------------------------------------------
                             big jet plane - lady of the sunshine
-------------------------------------------------------------------------------
Tabbed by:kento123
Email:kento2107@hotmail.com

Tuning: standard
intro rythmn guitar
 make sure u play it palm muted
e|-----------------------------------------------------------------------------|
B|-----------------------------------------------------------------------------|
G|----6--6--6--6--6--6--6--6--3--3--3--3--3--3--3--3---------------------------|
D|----6--6--6--6--6--6--6--6--3--3--3--3--3--3--3--3--3--3--3--3--3--3--3------|
A|----4--4--4--4--4--4--4--4--1--1--1--1--1--1--1--1--3--3--3--3--3--3--3------|
E|----------------------------------------------------1--1--1--1--1--1--1------|

e|-------------------------------------------------------------------------------------|
B|-------------------------------------------------------------------------------------|
G|-------------------------------------------------------------------------------------|
D|---3--3--3--3--3--3--3--3------------------------------------------------------------|
A|---3--3--3--3--3--3--3--3------------------------------------------------------------|
E|---1--1--1--1--1--1--1--1------------------------------------------------------------|

intro riff

e|-----------------------------------------------------------------------------|
B|----/-9----6-----9-----------------------/---9----6-----9--------------------|
G|-----------------------5---6----------------------------------8------6-------|
D|-----------------------------------------------------------------------------|
A|-----------------------------------------------------------------------------|
E|-----------------------------------------------------------------------------|
    on the bar before the chorus the is just one different chord he uses
e|---------------------------------------------------------------------------|
B|---------------------------------------------------------------------------|
G|-6--6--6--6--6--6--6--6--3--3--3--3--3--3--3--3----------------------------|
D|-6--6--6--6--6--6--6--6--3--3--3--3--3--3--3--3----------------------------|
A|-4--4--4--4--4--4--4--4--1--1--1--1--1--1--1--1----------------------------|
E|---------------------------------------------------------------------------|

e|-----------------------------------------------------------------------------|
B|-----------------------------------------------------------------------------|
G|-----------------------------------------------------------------------------|
D|--3--3--3--3--3--3--3--3--6--6--6--6--6--6--6--6-----------------------------|
A|--3--3--3--3--3--3--3--3--6--6--6--6--6--6--6--6-----------------------------|
E|--1--1--1--1--1--1--1--1--4--4--4--4--4--4--4--4-----------------------------|
 chorus (strum the chords)
-----------------------------------------------------------------------------|
B|---------------------------------------------------------------------------|
G|--6--6--6--6--6--6--6--6--3--3--3--3--3--3--3--3---------------------------|
D|--6--6--6--6--6--6--6--6--3--3--3--3--3--3--3--3---------------------------|
A|--4--4--4--4--4--4--4--4--1--1--1--1--1--1--1--1---------------------------|
E|---------------------------------------------------------------------------|

e|-----------------------------------------------------------------------------|
B|-----------------------------------------------------------------------------|
G|----------------------------------------------------6--6--6--6--6--6--6------|
D|---3--3--3--3--3--3--3--3--3--3--3--3--3--3--3--3---6--6--6--6--6--6--6------|
A|---3--3--3--3--3--3--3--3--3--3--3--3--3--3--3--3---4--4--4--4--4--4--4------|
E|---1--1--1--1--1--1--1--1--1--1--1--1--1--1--1--1----------------------------|

e|-----------------------------------------------------------------------------|
B|-----------------------------------------------------------------------------|
G|-6--3--3--3--3--3--3--3--3---------------------------------------------------|
D|-6--3--3--3--3--3--3--3--3-3--3--3--3--3--3--3--3--6--6--6--6--6--6--6-6-----|
A|-4--1--1--1--1--1--1--1--1-3--3--3--3--3--3--3--3--6--6--6--6--6--6--6-6-----|
E|---------------------------1--1--1--1--1--1--1--1--4--4--4--4--4--4--4-4-----|

do this x2

    bridge
e|---------------1--1--1--1--1--1--1--1--1--1--1--1--1--1--1--1----------------|
B|--6-----6------2--2--2--2--2--2--2--2--2--2--2--2--2--2--2--2----------------|
G|--6-----6------3--3--3--3--3--3--3--3--3--3--3--3--3--3--3--3----------------|
D|--6--~--6--~---3--3--3--3--3--3--3--3--3--3--3--3--3--3--3--3----------------|
A|--4-----3------1--1--1--1--1--1--1--1--1--1--1--1--1--1--1--1----------------|
E|-----------------------------------------------------------------------------|

   do this part x4

   then the chorus again

   then the end on the intro chord progression to end

   that should be all the parts to the song


| /  slide up
| \  slide down
| h  hammer-on
| p  pull-off
| ~  vibrato
| +  harmonic
| x  Mute note
===============================================================================
Добавлено: 02.07.2012
Другие материалы по этой песне:
  • Аккорды и текст

Страница создана 22.05.2012
http://primanota.ru/lady-of-the-sunshine/big-jet-plane-chords.htm
Привет, Гость.
Предлагаем пройти революционный курс по гитаре.
Подарок от PrimaNota.Ru, забирай!