PrimaNota.ru - самый крупный в мире бесплатный архив песенных текстов, аккордов, табулатур и нот


Lady Linn - I Dont Wanna Dance - бас-таба, видео

Регистрация Запомнить меня
Войти через:  Facebook Google Twitter Vk Yandex Mail.ru

Lady Linn - I Dont Wanna Dance - бас-таба, видео

Печатать
Просмотров: 167
Title: I don't wanna dance
Artist: Lady Linn



Bass

Intro								
G|------------------------------|------------------------------||			
D|------------------------------|------------------------------||			
A|-4-----------4----------------|-4-----------4----------------||			
E|------------------4---6---4---|------------------4---6---4---||			

Verse + Chorus
G||------------------------------|
D||------------------------------|
A||-4-----------4----------------|
E||------------------4---6---4---|

G|---------------------------|---------------------------|--------------------------------|
D|---------------------------|---------------------------|--------------------------------|
A|-4-----------4--------6----|----------------------6----|----------------------6---------|
E|------------------4--------|-4-----------4-------------|-4-----------4--------------4---|


G|---------------------------|---------------------------|---------------------------|
D|---------------------------|---------------------------|---------------------------|
A|---------------------------|---------------------------|----------------------6----|
E|-6-----------6----6---1----|-6-----------6----1---5----|-4-----------4-------------|


G|---------------------------------||
D|---------------------------------||
A|-------------------------6-------||  		x as many times as you want...
E|-4---4-------4-------4-------4---||		use some variation as in the track


Listen to the track to get the excact rythm in you fingers
VIDEO 

Enjoy!
Добавлено: 07.03.2012
Другие материалы по этой песне:

Страница создана 07.03.2012
http://primanota.ru/lady-linn/i-dont-wanna-dance-chords.htm
Привет, Гость.
Предлагаем пройти революционный курс по гитаре.
Подарок от PrimaNota.Ru, забирай!