PrimaNota.ru - самый крупный в мире бесплатный архив песенных текстов, аккордов, табулатур и нот


Lady Lamb The Beekeeper - Shoulders - аккорды и текст, видео

Регистрация Запомнить меня
Войти через:  Facebook Google Twitter Vk Yandex Mail.ru

Lady Lamb The Beekeeper - Shoulders - аккорды и текст, видео

Печатать
Просмотров: 127
Shoulders
Lady Lamb The Beekeeper
Standard tuning
Capo 4

G - 320003
C - x32003
Em - 022000
F# - 200003
A7 - x02020

          G
I won't believe you truly love me 
        C
til you take me by my shoulders 
    G                         C
and tear me, tear me down the middle 
        Em
did you miss me? 
                     C
then show me how you kiss 
              G
with primal intent 

e|--3-0-0-3------------------------------------------------------------------|
B|--0-3-3-0------------------------------------------------------------------|
G|--0-0-0-0------------------------------------------------------------------|
D|--0-0-0-2------------------------------------------------------------------|
A|--2-2-2-3------------------------------------------------------------------|
E|--3-3-3--------------------------------------------------------------------|

    G                F#               Em
the freckles on your shoulders in the light of the sun
     A7 
I am clean, I am crucified 
    G                F#               Em
the freckles on your shoulders in the light of the sun 
     A7 
I am clean, I am crucified 
        G         F#            Em
and you lap of my blood cause I let you lap it up 
     A7
I am nothing and I am everyone 
    G         F#            Em
you lap up my blood cause I let you lap it up 
       A7
I have love and it is killing me 
        G         F#           Em
and you lap of my love cause I let you lap it up 
       A7
see my love as it runs from me 
        G         F#           Em
and you lap up my love cause I let you lap it up 
        A7
feel my blood, feel it run through me 

e|--3p0-0---0---3p0-0---0---3p0-0---0---0---0---0----------------------------|
B|--2---3p2-3p2-2---3p2-3p2-2---3p2-3p2-3p2-3p2-3p2--------------------------|
G|--0---0---0---0---0---0---0---0---0---0---0---0----------------------------|
D|--2---2---2---2---2---2---2---2---2---2---2---2----------------------------|
A|--0---0---0---0---0---0---0---0---0---0---0---0----------------------------|
E|---------------------------------------------------------------------------|

e|--3p0-0---0---3p0-0---0---0---0---0---0---0---0----------------------------|
B|--2---3p2-3p2-2---3p2-3p2-3p2-3p2-3p2-3p2-3p2-3p2--------------------------|
G|--0---0---0---0---0---0---0---0---0---0---0---0----------------------------|
D|--2---2---2---2---2---2---2---2---2---2---2---2----------------------------|
A|--0---0---0---0---0---0---0---0---0---0---0---0----------------------------|
E|---------------------------------------------------------------------------|

e|--3p0-0---0---3p0-0---0---0---0---0---0---0---0----------------------------|
B|--2---3p2-3p2-2---3p2-3p2-3p2-3p2-3p2-2---2---2----------------------------|
G|--0---0---0---0---0---0---0---0---0---0---0---0----------------------------|
D|--2---2---2---2---2---2---2---2---2---2---2---2----------------------------|
A|--0---0---0---0---0---0---0---0---0---0---0---0----------------------------|
E|---------------------------------------------------------------------------|

          G
this is a marathon to see 
           C
who's less marred by the finish line 
       G 
we are headed to Coney Island 
       C
when I leave you at the station 
  Em                 C
what an awakening sensation 

         G
I'm most alone when I'm alone with you 
         C
I'm most alone when I'm alone with you 
         G                           C
I'm most alone when I'm alone with you 

e|--3p0-0------3p0-0---0-----------------------------------------------------|
B|--0---3p0----0---3p0-0-----------------------------------------------------|
G|--0---0------0---0---0-----------------------------------------------------|
D|--2---2------2---2---2-----------------------------------------------------|
A|--3---3------3---3---3-----------------------------------------------------|
E|---------------------------------------------------------------------------|

       G         F#            Em
So you lap up my blood cause I let you lap it up 
       A7
see it rust as it runs from me 
        G         F#            Em
and you lap up my love cause I let you lap it up 
          A7
I feel it spreading the length of me 
        G                F#                Em
and the freckles on your shoulders and the blue of my blood 
A7
spreading the length of us 
    G                F#                Em
the freckles on your shoulders and the red of my love 
A7
spreading the length of us.
Добавлено: 25.06.2013
Другие материалы по этой песне:
  • Аккорды и текст

Страница создана 25.06.2013
http://primanota.ru/lady-lamb-the-beekeeper/shoulders-chords.htm
Привет, Гость.
Предлагаем пройти революционный курс по гитаре.
Подарок от PrimaNota.Ru, забирай!