PrimaNota.ru - самый крупный в мире бесплатный архив песенных текстов, аккордов, табулатур и нот


Lady Lamb The Beekeeper - Heretic - таба, видео

Регистрация Запомнить меня
Войти через:  Facebook Google Twitter Vk Yandex Mail.ru

Lady Lamb The Beekeeper - Heretic - таба, видео

Печатать
Просмотров: 98
Уроки эстрадного вокала в Санкт-Петербурге
Standard tuning

E:   x 7  9  9  9  7
F#m: x 9  11 11 10 9
G#m: x 11 13 13 12 11

Song starts by bending and using whammy bar on E chord (x79997)

Intro/Verse:
|--------------------------|    |--------------------------------------------|
|--------------------------|    |--------------------------------------------|
|--------------------------|    |--------------------------------------------|
|--------------------------| x3 |--------------------------------------------|
|----------2-4--2----------|    |-------------4-4--2-------------------------|
|--0--2-4---------4--4p2---|    |--2--0--4-----------4--4p2------------------|

he-re, he-re, heretic
spit out your gum and bite your tongue
you're gonna eat your words, you're gonna finish your milk
you're gonna drop your gun

|------------------------------|    |----------------------------------------|
|------------------------------|    |----------------------------------------|
|------------------------------|    |----------------------------------------|
|-----------9-11--9------------| x3 |---------------11-11--9-----------------|
|--7--9-11----------11--11p9---|    |--9--7-7-11-------------11--------------|
|------------------------------|    |----------------------------------------|

he-re, he-re, heretic
when you show us your notes and you stroke your chin
you think you're up, that you were tagged and you're it
you think you've already won

        F#m
but the sun is burning a hole in your head
    G#m
the sun is burning a hole in your head
           F#m
you should stay in the shade, Copernicus
          E
cause the sun is burning a hole in your head

|--------------------------|    |--------------------------------------------|
|--------------------------|    |--------------------------------------------|
|--------------------------|    |--------------------------------------------|
|--------------------------| x3 |--------------------------------------------|
|----------2-4--2----------|    |--------------4-4--2------------------------|
|--0--2-4---------4--4p2---|    |--2--0-0-4-----------4--4p2-----------------|

he-re, he-re, heretic
hysterical and ill-equipped
historically to cope with what you say
you see through your scope

|--------------------------------------------------------------------------------------------------|
|--------------------------------------------------------------------------------------------------|
|--------------------------------------------------------------------------------------------------|
|-----------9-11--9--------------------9-1111-9--------------------9-1111-9------------------------|
|--7--9-11----------11--11p9--7--9-11-----------11--11p9--7--9-11-----------11--11p9---9--7--11~---|
|--------------------------------------------------------------------------------------------------|

he-re, he-re, heretic
what you know about the stars, we don't care a bit
cause we know in our hearts we are the only ones
we are the favorite

    F#m
and we don't care what you see in the sky
   G#m
no we don't care what you see in the sky
    F#m
galileo galilee galilae galeli
E
we don't care what you see in the sky

|--------------------------------------------------------------------------------------------------|
|--------------------------------------------------------------------------------------------------|
|--------------------------------------------------------------------------------------------------|
|--------------------------------------------------------------------------------------------------|
|----------2-4--2----------------/4--2-------------2-2-4-4-2-------------------4-4-2---------------|
|--0--2-4---------4--4p2--0---4--------4p2--0--2-4-----------4--4p2--2--0-0-4--------4-4p2---------|

he-re, he-re, heretic
this is not just house arrest
don't spend the rest of your life taking back
taking back what you said

|--------------------------------------------------------------------------------------------------|
|--------------------------------------------------------------------------------------------------|
|--------------------------------------------------------------------------------------------------|
|-----------9-11--9--------------------9-1111-9----------------------99-11--9----------------------|
|--7--9-11----------11--11p9--7--9-11-----------11--11p9--77-99-1111----------11--11p9---9--7--11~-|
|--------------------------------------------------------------------------------------------------|

cause you and I are concentric
let's learn about black holes, unplug the television set
let's ponder the true builders of the pyramids
and then let's order in

        F#m
cause I know it ain't no lie
  G#m
I know it ain't no lie
        F#m
we both saw the lights
            E
if you're a heretic then so am I

|---------------------------|
|---------------------------|
|--9-9--1111-1313-1111------|
|--9-9--1111-1313-1111------|
|--7-7--9-9--1111-9-9-------|
|---------------------------|

            F#m
if you're a heretic then so am I
            E
if you're a heretic then so am I

|---------------------------|
|---------------------------|
|--9-9--1111-1313-1111------|
|--9-9--1111-1313-1111------|
|--7-7--9-9--1111-9-9-------|
|---------------------------|

            F#m                E
if you're a heretic then so am I
Добавлено: 14.11.2015
Другие материалы по этой песне:
  • Аккорды и текст

Страница создана 14.11.2015
http://primanota.ru/lady-lamb-the-beekeeper/heretic-chords.htm
Привет, Гость.
Предлагаем пройти революционный курс по гитаре.
Подарок от PrimaNota.Ru, забирай!