PrimaNota.ru - самый крупный в мире бесплатный архив песенных текстов, аккордов, табулатур и нот


Lady Lamb The Beekeeper - Comet Flies Over The Underbelly - таба, видео

Регистрация Запомнить меня
Войти через:  Facebook Google Twitter Vk Yandex Mail.ru

Lady Lamb The Beekeeper - Comet Flies Over The Underbelly - таба, видео

Печатать
Просмотров: 106
Standard tuning

Intro:
e|--5--5--5--5--5--5--5--5--4--4--4--4--4--4--4--4----|
B|---5--5--5--5--5--5--5--5--5--5--5--5--5--5--5--5---|
G|----6--6--6--6--6--6--6--6--6--6--6--6--6--6--6--6--|
D|----------------------------------------------------|
A|----------------------------------------------------|
E|----------------------------------------------------|

e|--5--5--5--5--5--5--5--5--4--4--4--4--4--4--4~------|
B|---5--5--5--5--5--5--5--5--5--5--5--5--5--5-5~------|
G|----6--6--6--6--6--6--6--6--6--6--6--6--6--6--------|
D|----------------------------------------------------|
A|----------------------------------------------------|
E|----------------------------------------------------|

"hello..."
e|--5--5--5--5--5--5--5--5--4--4--4--4--4--4--7--4----|
B|---5--5--5--5--5--5--5--5--5--5--5--5--5--5--5--5---|
G|----6--6--6--6--6--6--6--6--6--6--6--6--6--6--6--6--|
D|----------------------------------------------------|
A|----------------------------------------------------|
E|----------------------------------------------------|

e|--5--5--5--5--5--5--5--5--4--4--4--4--4--4--4--4----|
B|---5--5--5--5--5--5--5--5--5--5--5--5--5--5--5--5---|
G|----6--6--6--6--6--6--6--6--6--6--6--6--6--6--6--6--|
D|----------------------------------------------------|
A|----------------------------------------------------|
E|----------------------------------------------------|

"I love you..."
e|--2--2--2--2--2--2--2--2--0--0--0--0--0--0--0--0----|
B|---3--3--3--3--3--3--3--3--2--2--2--2--2--2--2--2---|
G|----4--4--4--4--4--4--4--4--2--2--2--2--2--2--2--2--|
D|----------------------------------------------------|
A|----------------------------------------------------|
E|----------------------------------------------------|

e|--2--2--2--2--5--5--4--2--0--0--0--0--0--0--0--0----|
B|---3--3--3--3--3--3--3--3--2--2--2--2--2--2--2--2---|
G|----4--4--4--4--4--4--4--4--2--2--2--2--2--2--2--2--|
D|----------------------------------------------------|
A|----------------------------------------------------|
E|----------------------------------------------------|

"I'd like a Dr. Pepper..."
e|--5--5--5--5--5--5--5--5--4--4--4--4--4--4--4--4----|
B|---5--5--5--5--5--5--5--5--5--5--5--5--5--5--5--5---|
G|----6--6--6--6--6--6--6--6--6--6--6--6--6--6--6--6--|  x2
D|----------------------------------------------------|
A|----------------------------------------------------|
E|----------------------------------------------------|

"I love you..."
e|--2--2--2--2--2--2--2--2--0--0--0--0--0--0--0--0----|
B|---3--3--3--3--3--3--3--3--2--2--2--2--2--2--2--2---|
G|----4--4--4--4--4--4--4--4--2--2--2--2--2--2--2--2--|
D|----------------------------------------------------|
A|----------------------------------------------------|
E|----------------------------------------------------|

e|--2--2--2--2--5--5--4--2--0--0--0--0--0--0--0--0----|
B|---3--3--3--3--3--3--3--3--2--2--2--2--2--2--2--2---|
G|----4--4--4--4--4--4--4--4--2--2--2--2--2--2--2--2--|
D|----------------------------------------------------|
A|----------------------------------------------------|
E|----------------------------------------------------|

"one, two, three, four..."
e|--5--5--5--5--5--5--5--7--4--4--4--4--4--4--7--4----|
B|---5--5--5--5--5--5--5--5--5--5--5--5--5--5--5--5---|
G|----6--6--6--6--6--6--6--6--6--6--6--6--6--6--6--6--|
D|----------------------------------------------------|
A|----------------------------------------------------|
E|----------------------------------------------------|

e|--5--5--5--5--5--5--5--5--4--4--4--4--4--4--4--4----|
B|---5--5--5--5--5--5--5--5--5--5--5--5--5--5--5--5---|
G|----6--6--6--6--6--6--6--6--6--6--6--6--6--6--6--6--|
D|----------------------------------------------------|
A|----------------------------------------------------|
E|----------------------------------------------------|

"I would never hurt you..."
e|--2--2--2--2--2--2--2--2--0--0--0--0--0--0--0--0----|
B|---3--3--3--3--3--3--3--3--2--2--2--2--2--2--2--2---|
G|----4--4--4--4--4--4--4--4--2--2--2--2--2--2--2--2--|
D|----------------------------------------------------|
A|----------------------------------------------------|
E|----------------------------------------------------|

e|--2--2--2--2--5--5--4--2--0--0--0--0--0--0--0--0----|
B|---3--3--3--3--3--3--3--3--2--2--2--2--2--2--2--2---|
G|----4--4--4--4--4--4--4--4--2--2--2--2--2--2--2--2--|
D|----------------------------------------------------|
A|----------------------------------------------------|
E|----------------------------------------------------|

"if we want..." (repeat both lines 3 times)
e|-----5-5----5-5----5-5----5-5----4-4----4-4----4-4----4-4--
B|---5-5-5--5-5-5--5-5-5--5-5-5--5-5-5--5-5-5--5-5-5--5-5-5--
G|--6-6----6-6----6-6----6-6----6-6----6-6----6-6----6-6-----
D|-----------------------------------------------------------
A|-----------------------------------------------------------
E|-----------------------------------------------------------

  -----5-5----5-5----5-5----5-5----4-4----4-4----4-4----4-4--|
  ---5-5-5--5-5-5--5-5-5--5-5-5--4-4-4--4-4-4--4-4-4--4-4-4--|
  --6-6----6-6----6-6----6-6----5-5----5-5----5-5----5-5-----|
  -----------------------------------------------------------|
  -----------------------------------------------------------|
  -----------------------------------------------------------|

"it's my favorite..."
e|-----5-5----5-5----5-5----5-5----4-4----4-4----4-4----4-4--|
B|---5-5-5--5-5-5--5-5-5--5-5-5--4-4-4--4-4-4--4-4-4--4-4-4--|
G|--6-6----6-6----6-6----6-6----5-5----5-5----5-5----5-5-----|  x2
D|-----------------------------------------------------------|
A|-----------------------------------------------------------|
E|-----------------------------------------------------------|

"hey stranger..."
strum these chords:  577655
                     466544

"and so it goes hello..."
e|--5--5--5--5--5--5--5--5--4--4--4--4--4--4--4--4----|
B|---5--5--5--5--5--5--5--5--5--5--5--5--5--5--5--5---|
G|----6--6--6--6--6--6--6--6--6--6--6--6--6--6--6--6--|
D|----------------------------------------------------|
A|----------------------------------------------------|
E|----------------------------------------------------|

e|--5--5--5--5--5--5--7--5--4--4--4--4--4--4-----4--4--|
B|---5--5--5--5--5--5--5--5--5--5--5--5--5--5-7p5--5---|
G|----6--6--6--6--6--6--6--6--6--6--6--6--6--6----6----|
D|-----------------------------------------------------|
A|-----------------------------------------------------|
E|-----------------------------------------------------|

e|--5--5--5--5--5--5--5--5--4--4--4--4--4--4--4--4----|
B|---5--5--5--5--5--5--5--5--5--5--5--5--5--5--5--5---|
G|----6--6--6--6--6--6--6--6--6--6--6--6--6--6--6--6--|
D|----------------------------------------------------|
A|----------------------------------------------------|
E|----------------------------------------------------|

e|--5--5--5--5--5--5--7--5--4--4--4--4--4--4------4----|
B|---5--5--5--5--5--5--5--5--5--5--5--5--5--5-7p5--5---|
G|----6--6--6--6--6--6--6--6--6--6--6--6--6--6---6--6--|
D|-----------------------------------------------------|
A|-----------------------------------------------------|
E|-----------------------------------------------------|

end on:
e|--5~-------|
B|--5~-------|
G|--6~-------|
D|-----------|
A|-----------|
E|-----------|
Добавлено: 01.07.2013
Другие материалы по этой песне:
  • Аккорды и текст

Страница создана 01.07.2013
http://primanota.ru/lady-lamb-the-beekeeper/comet-flies-over-the-underbelly-chords.htm
Привет, Гость.
Предлагаем пройти революционный курс по гитаре.
Подарок от PrimaNota.Ru, забирай!