PrimaNota.ru - самый крупный в мире бесплатный архив песенных текстов, аккордов, табулатур и нот


Lady Lamb The Beekeeper - Between Two Trees - таба, видео

Регистрация Запомнить меня
Войти через:  Facebook Google Twitter Vk Yandex Mail.ru

Lady Lamb The Beekeeper - Between Two Trees - таба, видео

Печатать
Просмотров: 68
-------------------------------------------------------------------------------
                             BETWEEN TWO TREES - Lady Lamb The Beekeeper
-------------------------------------------------------------------------------
Tabbed by: 
E-mail:

Tuning: Standard 
Capo: 2nd fret 

e|---------------------------------------------------------------------------|
B|---------------------------------------------------------------------------|
G|---------------------------------------------------------------------------|
D|---2---2---2---2---5---5---5---5---5---5---5---5---5---5---7---0-----------| x 2 
A|-----2-------2-------5-------5-------4-------4-------0-------0-------------|
E|-0-------0-------0-------0-------0-------0-------5-------7-----------------|

e|-------3---0-----------2---0-----------5---0-------5---7---7---0-----------|
B|---------------0---------------0---------------0---------------------------|
G|---------------------------------------------------------------------------|
D|---2---------------5---------------5---------------------------------------| x 2 
A|-----2-------2-------5-------5-------4-------4-------0-------0-------------|
E|-0-------0-------0-------0-------0-------0-------5-------7-----------------|

e|---------------------------------------------------------------------------|
B|---------------------------------------------------------------------------|
G|---------------------------------------------------------------------------|
D|---2---2---2---2---2---2-----2---------------------------------------------|
A|-----2-------2-------2-----2---2-------------------------------------------|
E|-0-------0-------0-------0-------------------------------------------------|

e|---------------------------------------------------------------------------|
B|---------------------------------------------------------------------------|
G|---------------------------------------------------------------------------|
D|---2---2---2---2---5---5---5---5---5---5---5---5---5---5---7---0-----------| x 2 
A|-----2-------2-------5-------5-------4-------4-------0-------0-------------|
E|-0-------0-------0-------0-------0-------0-------5-------7-----------------|
Kick at a pillow till it makes you tired, tired
Bummed out my whole pack and I gave my fire, all my fire

e|---------------------------------------------------------------------------|
B|-------------------------------------------0-------------------------------|
G|---------------------------------------0-------0---------------------------|
D|-------0---0---0---0---0---0---0---0---------------0-----------------------|
A|---------2-------2-------4-------4-------4-------4-------------------------|
E|-0-2-3-------3------/5-------5-------5-------5-------5---------------------|

e|---------------------------------------------------------------------------|
B|---------------------------------------------------------------------------|
G|---------------------------------------------------------------------------|
D|---2---2---2---2---5---5---5---5---5---5---5---5---5---5---7---0-----------| x 3 
A|-----2-------2-------5-------5-------4-------4-------0-------0-------------|
E|-0-------0-------0-------0-------0-------0-------5-------7-----------------|
Emptied my pockets, these empty pockets
Emptied my pockets and I waited for your call
Laid on the pavement, down on the pavement
Laid on the pavement with my ear against the wall
Stood on the mountain, up on the mountain
Stood on the mountain and I called your name

e|---------------------------------------------------------------------------|
B|-------------------------------------------0-------------------------------|
G|---------------------------------------0-------0---------------------------|
D|-------0---0---0---0---0---0---0---0---------------0-----------------------| x 5 
A|---------2-------2-------4-------4-------4-------4-------------------------|
E|-0-2-3-------3------/5-------5-------5-------5-------5---------------------|
I am no savior I am no savior I am no savior
I am only your dog
And I'm all tied up, see how I'm tied up
My wrists are bound I am the boat on your dock
I am the boat on your dock

e|---------------------------------------------------------------------------|
B|---------------------------------------------------------------------------|
G|---------------------------------------------------------------------------|
D|---2---2---2---2---5---5---5---5---5---5---5---5---5---5---7---0-----------| x 3 
A|-----2-------2-------5-------5-------4-------4-------0-------0-------------|
E|-0-------0-------0-------0-------0-------0-------5-------7-----------------|
The more you give me, the more I love you
The more I love you, the less you give

Are you a predator? 
Are you a huntress?
Are you just a girl? 

e|---------------------------------------------------------------------------|
B|---------------------------------------------------------------------------|
G|---------------------------------------------------------------------------|
D|---3---3---3---3---0---0---0---0---2---2---2---2---2---2---2---2-----------| x 2 
A|-----3-------3-------2-------2-------2-------2-------2-------2-------------|
E|-1-------1-------3-------3-------0-------0-------0-------0-----------------|
Or are you some sort of bird? 
Some bird turned lioness?

e|---------------------------------------------------------------------------|
B|-------0----0----0----0----0-----------------------------------------------|
G|-------0----0----0----0----0-----------------------------------------------|
D|-------0----2----0----0----2-----------------------------------------------|
A|-------2----2----2----4----2-----------------------------------------------|
E|-0-2-3-3---------3----5----0-----------------------------------------------|
I will bury you between two trees. 
I will bury you with me

e|---------------------------------------------------------------------------|
B|---------------------------------------------------------------------------|
G|---------------------------------------------------------------------------|
D|---2---2---2---2---5---5---5---5---5---5---5---5---5---5---7---0-----------| x 2 
A|-----2-------2-------5-------5-------4-------4-------0-------0-------------|
E|-0-------0-------0-------0-------0-------0-------5-------7-----------------|
Let's knock some time off the clock, 
kill the night, untie these knots all tangled up
Let's knock some time off the clock, 
kill the night, untie these knots all tangled up


e|---------------------------------------------------------------------------|
B|---------------------------------------------------------------------------|
G|---------------------------------------------------------------------------|
D|---3---3---3---3---0---0---0---0---2---2---2---2---2---2---2---2-----------| x 2 
A|-----3-------3-------2-------2-------2-------2-------2-------2-------------|
E|-1-------1-------3-------3-------0-------0-------0-------0-----------------|
Let's knock some time off the clock, 
untie these knots all tangled up

e|-------3---0-----------2---0-----------5---0-------5---7---7---0-----------|
B|---------------0---------------0---------------0---------------------------|
G|---------------------------------------------------------------------------|
D|---2---------------5---------------5---------------------------------------| x 2 
A|-----2-------2-------5-------5-------4-------4-------0-------0-------------|
E|-0-------0-------0-------0-------0-------0-------5-------7-----------------|

e|---------------------------------------------------------------------------|
B|---------------------------------------------------------------------------|
G|---------------------------------------------------------------------------|
D|---2---2---2---2---2---2-----2---------------------------------------------|
A|-----2-------2-------2-----2---2-------------------------------------------|
E|-0-------0-------0-------0-------------------------------------------------|

e|---------------------------------------------------------------------------|
B|---------------------------------------------------------------------------|
G|---------------------------------------------------------------------------|
D|---2---2---2---2---5---5---5---5---5---5---5---5---5---5---7---0-----------| x 2 
A|-----2-------2-------5-------5-------4-------4-------0-------0-------------|
E|-0-------0-------0-------0-------0-------0-------5-------7-----------------|
Emptied my pockets
Laid on the pavement
Stood on the mountain 
And I called your name
Empty your pockets
Lay on the pavement
Stand on the mountain
Hear how I call your name
************************************

| /   slide up
| \   slide down
| h   hammer-on
| p   pull-off
| ~   vibrato
| +   harmonic
| x   Mute note
| b   Bend
| pb  Pre-bend
| br  Bend release
| pbr Pre-bend release
| brb Bend release bend

************************************
Добавлено: 15.06.2016
Другие материалы по этой песне:

Страница создана 08.08.2013
http://primanota.ru/lady-lamb-the-beekeeper/between-two-trees-chords.htm
Привет, Гость.
Предлагаем пройти революционный курс по гитаре.
Подарок от PrimaNota.Ru, забирай!