PrimaNota.ru - самый крупный в мире бесплатный архив песенных текстов, аккордов, табулатур и нот


Lady Danville - Sophie Roux - таба, видео

Регистрация Запомнить меня
Войти через:  Facebook Google Twitter Vk Yandex Mail.ru

Lady Danville - Sophie Roux - таба, видео

Печатать
Просмотров: 128
Tuning: D, G, C, F, A, D
Capo on 5

INTRO/VERSE/CHORUS:

|------------------------------------------3-----------------|
|---3------------0-------------------------------------------|
|-------2---2--------0---0----0----------------0---0---------|
|-------0---0--------0---0--------2---2--------0---0---------|
|-------0---0--------2---2--------3---3--------0---0---------|
|-------0---0--------0---0--------1---1--------1---1---------|


BRIDGE:



|---1---------------------0-------------------------------------------|
|-------3---3---3---3---------2---2---2---2----0----------------------|
|-------3---3---3---3---------2---2---2---2--------2---2---2---2------|
|-------2---2---2---2---------1---1---1---1--------2---2---2---2------|
|--------------------------------------------------1---1---1---1------|
|--------------------------------------------------0---0---0---0------|


   -3-----------------------------------------3--------------------|
   ----------------------0-----------------------------------------|
   -----0---0---0---0--------2---2---2---2-------0---0---0---0-----|
   -----0---0---0---0--------2---2---2---2-------0---0---0---0-----|
   -----0---0---0---0--------1---1---1---1-------0---0---0---0-----|
   -----1---1---1---1--------0---0---0---0-------1---1---1---1-----|
Добавлено: 22.11.2013
Другие материалы по этой песне:
  • Аккорды и текст

Страница создана 22.11.2013
http://primanota.ru/lady-danville/sophie-roux-chords.htm
Привет, Гость.
Предлагаем пройти революционный курс по гитаре.
Подарок от PrimaNota.Ru, забирай!