PrimaNota.ru - самый крупный в мире бесплатный архив песенных текстов, аккордов, табулатур и нот


Lads - Unusual - текст песни, таба, видео

Регистрация Запомнить меня
Войти через:  Facebook Google Twitter Vk Yandex Mail.ru

Lads - Unusual - текст песни, таба, видео

Печатать
Просмотров: 168
Уроки эстрадного вокала в Санкт-Петербурге



Date: Mon, 24 Oct 2005 22:38:37 +1300
From: Sam Russell 
Subject: l/lads/unusual.tab

Intro riff:

 ------------------------
 --3---3-----5---5-6-5---
 ----------------------5-
 ------------------------
 ------------------------
 ------------------------

 ------------------------
 ------------------------
 --5---5-----5-7-5-4---4-
 ------------------------
 ------------------------
 ------------------------

There is a G ringing in the bottom, could be played on another guitar, but
can be done on 

the same guitar if the high riff is played in this position

I'm not brave enough to try and work out the tonality of the chords for the
body of the 

song, so im assuming they're all powerchords, but you can get away with
playing them as 

major chords.

Verse:

C Bb F G

Gap:
[Just a G note with some cool effect, comes up quite often]

Prechorus:
They were all alone, broken and rejected...
C Bb F G

Chorus: 
The way he lived seems so unusual
G                            F                        C


The riff that comes through the chorus lots:
 -----------------13-15---15-13------------
 ------12-13-15-----------------15-13----12
 12----------------------------------------
 ------------------------------------------
 ------------------------------------------
 ------------------------------------------


Добавлено: 08.10.2013
Другие материалы по этой песне:
  • Аккорды и текст

Страница создана 19.04.2012
http://primanota.ru/lads/unusual-chords.htm
Привет, Гость.
Предлагаем пройти революционный курс по гитаре.
Подарок от PrimaNota.Ru, забирай!