PrimaNota.ru - самый крупный в мире бесплатный архив песенных текстов, аккордов, табулатур и нот


Lacuna Coil - Intoxicated - текст песни, таба, видео

Регистрация Запомнить меня
Войти через:  Facebook Google Twitter Vk Yandex Mail.ru

Lacuna Coil - Intoxicated - текст песни, таба, видео

Печатать
Просмотров: 295
Уроки эстрадного вокала в Санкт-Петербурге
Lacuna Coil - Intoxicated
Tuning DADGBe

[Intro]
e|--------------------------------------------------------------------------|
B|--------------------------------------------------------------------------|
G|------14--12----------12------------14--12--------------------------------|
D|--12----------14--15-----14--11--12---------14--15------------------------|
A|--------------------------------------------------------------------------|
D|--------------------------------------------------------------------------|


[Bridge]
e|--------------------------------------------------------------------------|
B|--------------------------------------------------------------------------|
G|--------------------------------------------------------------------------|
D|--0-0-0-0-8-8-8-8-7-7-7-7-3-3--0-0-0-0-8-8-8-8-7-7-7-7-3-3--8----10-------|
A|--0-0-0-0-8-8-8-8-7-7-7-7-3-3--0-0-0-0-8-8-8-8-7-7-7-7-3-3--8----10-------|
D|--0-0-0-0-8-8-8-8-7-7-7-7-3-3--0-0-0-0-8-8-8-8-7-7-7-7-3-3--8----10-------|


[Verse]
e|--------------------------------------------------------------------------|
B|--------------------------------------------------------------------------|
G|-7-7-7-7-7-7-7-7-7-7------------------------------------------------------|
D|-7-7-7-7-7-7-7-7-7-7------------------------------------------------------|
A|-5-5-5-5-5-5-5-5-5-5------------------------------------------------------|
D|--------------------------------------------------------------------------|
   . . . . . . . . 

[Chorus]
e|--------------------------------------------------------------------------|
B|--------------------------------------------------------------------------|
G|--------------------------------------------------------------------------|
D|-8-8-8-8-10-10-10-10-0-0-0-0-3-3-3-3--------------------------------------|
A|-8-8-8-8-10-10-10-10-0-0-0-0-3-3-3-3--------------------------------------|
D|-8-8-8-8-10-10-10-10-0-0-0-0-3-3-3-3--------------------------------------|
Добавлено: 25.08.2013
Другие материалы по этой песне:

Страница создана 25.08.2013
http://primanota.ru/lacuna-coil/intoxicated-chords.htm
Привет, Гость.
Предлагаем пройти революционный курс по гитаре.
Подарок от PrimaNota.Ru, забирай!