PrimaNota.ru - самый крупный в мире бесплатный архив песенных текстов, аккордов, табулатур и нот


Lacuna Coil - I Wont Tell You - текст песни, таба, видео

Регистрация Запомнить меня
Войти через:  Facebook Google Twitter Vk Yandex Mail.ru

Lacuna Coil - I Wont Tell You - текст песни, таба, видео

Печатать
Просмотров: 210
Artist - Lacuna Coil
Song - I won't tell you
Album - Shallow Life (3:48)
Drop A (7 strings)
Tab by Dark-Angel
Enjoy =)

Intro
e|----------------------|
B|----------------------|                   H.N  
G|----------------------|               G|--(5)-|
D|----------------------| X4 After this D|--(5)-|
A|--2--2/3--3/5--5/7--7-|
E|--x--x/x--x/x--x/x--x-|
A|--2--2/3--3/5--5/7--7-|

Verse (guitar 1)
e|-----------------------------------------|
B|-----------------------------------------|
G|-----------------------------------------|
D|-----------------------------------------| X4
A|--2--2-2--3--3-3-3--5--5-5-5--7-7-7-7-7--|
E|--2--2-2--3--3-3-3--5--5-5-5--7-7-7-7-7--|
A|--2--2-2--3--3-3-3--5--5-5-5--7-7-7-7-7--|
     Pm. .     . . .     . . .    .   .

Verse 1 (guitar 2)
e|---------|
B|---------|
G|---------|
D|--9-9-9--| Listen the song for the rythm
A|---------| (You can play the verse (guitar 1) during this part)
E|--7-7-7--|
A|---------|

Chorus
e|--------------------------------------------------|
B|--------------------------------------------------|
G|--------------------------------------------------|
D|--9-----7-----------------9-----7-----------------| Repeat this during all
A|--9(X3)-7(X5)-5-----7-----9(X3)-7(X5)-5-----3-----| the chorus
E|--7-----5-----5(X3)-7(X5)-7-----5-----5(X3)-3(X5)-|
A|--------------5-----7-----------------5-----3-----|

Verse 2 (same as the verse 1 for the both guitar)

Chorus 2 (same as the chorus 1)

Then play again the intro.

Solo

e|-----------------------------------------------------|
B|----19---18---19---18-18b19----19---18---19---18-18~-|
G|--17---17---17---17----------17---17---17---17-------|
D|-----------------------------------------------------|
A|-----------------------------------------------------|
E|-----------------------------------------------------|
A|-----------------------------------------------------|

e|-----------------------------------------------------|
B|----19---18---19---18-18b19---19---18---19~~~--------|
G|--17---17---17---17---------17---17---17-------------|
D|-----------------------------------------------------|
A|-----------------------------------------------------|
E|-----------------------------------------------------|
A|-----------------------------------------------------|

Chorus 3

e|------------------------------------------------------|
B|------------------------------------------------------|
G|------------------------------------------------------|
D|--9-----7-----------------9-----7---------------------| At the end
A|--9(X3)-7(X5)-5-----7-----9(X3)-7(X5)-5-----3------2--|
E|--7-----5-----5(X3)-7(X5)-7-----5-----5(x3)-3(X20)-2--|
A|--------------5-----7-----------------5-----3------2--|
                                                     Let's ring
Добавлено: 04.03.2012
Другие материалы по этой песне:
  • Аккорды и текст

Страница создана 04.03.2012
http://primanota.ru/lacuna-coil/i-wont-tell-you-chords.htm
Привет, Гость.
Предлагаем пройти революционный курс по гитаре.
Подарок от PrimaNota.Ru, забирай!