PrimaNota.ru - самый крупный в мире бесплатный архив песенных текстов, аккордов, табулатур и нот


Lacrimosa - Versiegelt Glanzumstrmt - текст песни, таба

Регистрация Запомнить меня
Войти через:  Facebook Google Twitter Vk Yandex Mail.ru

Lacrimosa - Versiegelt Glanzumstrmt - текст песни, таба

Печатать
Просмотров: 157
Hola a todos, bueno este es la tercera que subo jeje, espero y les sirva de ayuda.

Hi people, i hope this tab can help you, it take me long time to figure it out.

cualquier comentario / Any Comentary: Wickedangel911@hotmail.com



   Am  Dm  D*   E   Em F#m  Bm  C#
|---0---1---2---0---0---2---2---4----|
|---1---3---3---0---0---2---3---6----|
|---2---2---3---1---0---2---4---6----|
|---2---0---4---2---2---4---4---6----|
|---0---0---5---2---2---4---2---4----|
|-----------2---0---0---2---X---X----|

INTRO

|--5-|
|----|
|----|
|----|
|----|
|----|


||--------------------------------------------------------------------------------------------||
||--------------------------------------------------------------------------------------------||
||--------2-0-------------2-0---0-2-------2-4-2-0-2-------0-----------------------------------|| X4
||------2-----3-2-3-----2-----3---------3---------------2---3-2-0-2---------------------------||
||--0-3-------------0-3-------------0-5-------------0-3---------------------------------------||
||--------------------------------------------------------------------------------------------||


  SOLO 
||--5-----4-5-----7-5------------------|-------------------------0---0-1-----0-1-3-5-3-1-0----|
||-------------------------------------|--1-----0-1-0---1----1-3---3--------------------------|
||-----------------------2-4-5--4--2---|--------------2---------------------------------------|
||-------------------------------------|------------------------------------------------------|
||-------------------------------------|------------------------------------------------------|
||-------------------------------------|------------------------------------------------------|


|-------------------------0---0-1-0-1-3--1-0-1--0-1-3-5-3-1-0----0-------------||
|--1----0-1-0---1-----1-3---3----------------------------------3---3--1-3------||
|-------------2-----------------------------------------------------------2----||
|------------------------------------------------------------------------------||
|------------------------------------------------------------------------------||
|------------------------------------------------------------------------------||

Am Dm Am E


Am
Die Stille hat mich angeruhrt         
Es war dein Blick
Dm
War dein Erscheinen
Am
Und der Himmel hat sich aufgetan
E
Nur fur mich und ganz im Stillen

Am (SOLO 2)
Hingerissen und stumm bewundert
Dm
Von deinem Antlitz angetan
Am
Voller Ehrfurcht dir erlegen
E
So bin ich willenlos in deiner Hand

F#m  D*  Bm  C#
F#m  D*  Bm  C#
F#m  D*  Bm  C#  Em



(SOLO 2)
||-------------------------------------------------------------------------------|
||-------1------5---3-3----5-3-1--3-0---1-3-5-7--9-10--9-10--9-7--10--9-7--9-----|
||--2------2------------------------------------------------------------------6--|
||-------------------------------------------------------------------------------|
||-------------------------------------------------------------------------------|
||-------------------------------------------------------------------------------|


|-------------------------------------------------------------------------------------------------------||
|-----7------------7----7--9-7-6--7-9-10-12-10--9-7--9-10-12--10-12-14--12---10--9-7--9-10-9--7-9-7--5--||
|--6----6--7--5-4-----7---------------------------------------------------------------------------------||
|-------------------------------------------------------------------------------------------------------||
|-------------------------------------------------------------------------------------------------------||
|-------------------------------------------------------------------------------------------------------||

Am Dm Am E


Am (SOLO 2)
Trockne Tranen dir geopfert
Dm
Giesse deine Schonheit auf mein Fleisch
Am
Entfalte deiner Flugel Reize
E
Entfuhre mich in Zartlichkeit

F#m
Spreize Lust im Tempel brennend
D*
Steigend deine Blosse zungelnd
Bm
Im freien Fall mich dir ergeben
C#
Nackt umwunden in dein Reich

F#m
Dir verfallen und verloren
D*
Schweigend sterben dich nur traumen
Bm
Du im Licht vom Glanz umworben
C#
Ich im Dunkeln unerkannt

F#m D* Bm C#


De aqui en adelante son quintas / From here on are Power Chords

F  D E
F  D E

E
Die Stille hat mich angeruhrt         
Es war dein Blick
F#
War dein Erscheinen
G
Und der Himmel hat sich aufgetan
F#
Nur fur mich und ganz im Stillen

E
Hingerissen und stumm bewundert
F#
Von deinem Antlitz angetan
G
Voller Ehrfurcht dir erlegen
F#
So bin ich willenlos in deiner Hand


A
Trockne Tranen dir geopfert
D
Giesse deine Schonheit auf mein Fleisch
A
Entfalte deiner Flugel Reize
E
Entfuhre mich in Zartlichkeit

A
Spreize Lust im Tempel brennend
D
Steigend deine Blosse zungelnd
A
Im freien Fall mich dir ergeben
E
Nackt umwunden in dein Reich

F#
Dir verfallen und verloren
D
Schweigend sterben dich nur traumen
B
Du im Licht vom Glanz umworben
C#
Ich im Dunkeln unerkannt

F# D B C#


"El Amor Es La Ley, El Amor Bajo La Voluntad"
Добавлено: 17.06.2013
Другие материалы по этой песне:
  • Аккорды и текст

Страница создана 17.06.2013
http://primanota.ru/lacrimosa/versiegelt-glanzumstrmt-chords.htm
Привет, Гость.
Предлагаем пройти революционный курс по гитаре.
Подарок от PrimaNota.Ru, забирай!