PrimaNota.ru - самый крупный в мире бесплатный архив песенных текстов, аккордов, табулатур и нот


Lacrimosa - Tränen Der Sehnsucht - аккорды и текст, таба, видео

Регистрация Запомнить меня
Войти через:  Facebook Google Twitter Vk Yandex Mail.ru

Lacrimosa - Tränen Der Sehnsucht - аккорды и текст, таба, видео

Печатать
Просмотров: 369
Уроки эстрадного вокала в Санкт-Петербурге
Авторы музыки: Tilo Wolff
Авторы текста: Tilo Wolff
Tränen Der Sehnsucht
Lacrimosa
^  - hammer on, pull off
b  - bend string up
r  - release bend
/  - slide up
  - slide down
~  - vibrato
T  - tap
x  - struck string
.  - play the note and then mute it
<  - raising volume
PM - palm mute
AH - Artificial Harmonic

Intro: (This is just an interpretation, along the song it changes)
   Am              Dm
[e------------0--0---------------1---0---3-1-0--
B----------1------1-----------3----------------
G--------2------------------2-----2---2--------
D------2--------------0--0-----------------------------
A-0--0-----------------------------------------        
E----------------------------------------------]        
                              FIG1
  E         Am                         
-------------0----0----------------------0-----0---     } X2
----------0----0----0-------------1--0^1---1-----1-    
--------1--------1----1---------2------------2---------
------2-----------------------2--------------------
----2--------------------0--0----------------------
-0-------------------------------------------------

VERSE1: FIG1 } X3
On the second and third time of FIG1, this SOLO1 is played 2 times:
-17--------------------------------------------------------------------------
----17-18-17---15-17-18-15-17-15---13-15-17-15-17^15-------------------------
-----------------------------------------------------16---14-16-17-14-16-14--
-----------------------------------------------------------------------------
-----------------------------------------------------------------------------
-----------------------------------------------------------------------------

BRIDGE:
Guitar1:
  E          Eb               D                 C
-----7----7-----7--------6----6---6-------5----5---5------------
---------------------------------------------------------1--0---
--------9---9------9--8-----8---8---8--7-----7---7---7--------0-
--------------9-------------------------------------------------
--7-------------------6----------------5-------------5---3------
----------------------------------------------------------------
Guitar2:
-----------------------------------------------------------------------------
-----------------------------------------------------------------------------
----------16----16-------------15----15-------------14----14-----------------
-/14~---14--1414----14-13~---13--1313----13-12~---12--1212----12-10--9-------
-----------------------------------------------------------------------10~---
-----------------------------------------------------------------------------

CHORUS:
------------------------
------------------------
------------------------
--5----------10--------- } X4
--3-----5-----8-----5---
--------3-----------3---

VERSE2: FIG1 } X7
On the thrird and fourth time of FIG1 this solo is played:
-5--------------------------------------------------------------------------
---5-6-5----3-5-6-3-5-3----1-3-3b5~r3b5~r3b5r3------------------------------
-----------------------------------------------4------4--5--5-7-5-4-----AH--
---------------------------------------------------7----------------7-5-7~--
----------------------------------------------------------------------------
----------------------------------------------------------------------------

--------15b17r15b17-15-----------------
--15-17----------------13--------------
-----------------------------14-12-14--
---------------------------------------
---------------------------------------
---------------------------------------

-12-12-13----13---13---13----13----13---13---13-------------------------
----------15--------------17----15--------------1718----17----17----17--
----------------17---16---------------17---16--------19----17----16-----
------------------------------------------------------------------------
------------------------------------------------------------------------
------------------------------------------------------------------------

-------20----19-17-15----15b17r15b17~-15------------------
----17----17----------17-----------------13---------------
-16-------------------------------------------14-12-14---
----------------------------------------------------------
----------------------------------------------------------
----------------------------------------------------------

-On the 5th, 6th and 7th time of FIG1 that follow, there is SOLO1
accompaning as before.

BRIDGE: played the same both guitars

CHORUS:
------------------   ------------------------
------------------   ------------------------
------------------   ------------------------
--5-------10------X4 ------------------------
--3---5---8---5---   -5-----3333333333333-3--
------3-------3---   -3-----1111111111111-1--
                        PM...........
-Then...
------------------------------------------------------------
------------------------------------------------------------FIG2
------------------------------------------------------------
--5-5-----5---5--------------------------------------------- } X4
--3-3-3-3-3-3-3-5-5-----5---5-3-3-----3---3-5-5-----5---5---
----------------3-3-3-3-3-3-3-1-1-1-1-1-1-1-3-3-3-3-3-3-3---
       PM.   .       ...   .       ...   .       ...   .

OUTRO SOLO:
Guitar 1: Plays FIG2 until the end
Guitar 2:

------------------------------------------------------------------------
----------------8---8-----8---6^5-----------8-----8---8-----8---6^5-----
--0-0-5^0-0-5-7---5---5^7---5-----7^5---5^7---5^7---5---5^7---5-----7^5-
------------------------------------------------------------------------
------------------------------------------------------------------------
------------------------------------------------------------------------

---------------------------------------------------------------------
------8-----8---8-----8---6^5-----------8-----8---8-----8---6^5------
--5^7---5^7---5---5^7---5-----7^5---5^7---5^7---5---5^7---5-----7^5--
---------------------------------------------------------------------
---------------------------------------------------------------------
---------------------------------------------------------------------

    C       G                 F              G
---------------------------------------------3-----------
---------------------------------------3---------6-5-3---
--/9~~9~~-9-7^9^75^7----------------5---5-5---5---------
----------------------5---53-3--3/5---------------------
---------------------------------------------------------
---------------------------------------------------------

==================================================
The part that follows is weird to play, but I believe it is the correct form.
The pick is used for tapping, for sliding and for hammering on(quite difficult)
Ex:
-First 8 is played
-Then the pick taps on 12 and slides to 13 (T/)
-Then the pick is released so 8 can sound again
-Again the pick taps on 12 and slides to 13... and so on
-The resulting sound is something like if played like this:
[e-----------------------------------------------------------------------------
B-8^12^13--8^12^13--8^12^13--8^12^13--10^12^13--10^12^13--10^12^13--10^12^13--
G-----------------------------------------------------------------------------

e-------------------------------------------------------------------------
B-1^12^13--1^12^13--1^12^13--1^12^13--8^12^13--8^12^13--8^12^13--8^12^13--
G-------------------------------------------------------------------------]
Anyway, I know this part might be wrong.
==================================================

---T-/-----T-/-----T-/-----T-/------T-/------T-/------T-/------
-8-12/13^8-12/13^8-12/13^8-12/13^10-12/13^10-12/13^10-12/13^10-
---------------------------------------------------------------
---------------------------------------------------------------
---------------------------------------------------------------
---------------------------------------------------------------

-T-/-----T-/------T-/----T-/------T-/-----T-/-----T-/-----T-/-----T-/--
-12/13^1-12/13^1-12/13^1-12/13^1-12/13^8-12/13^8-12/13^8-12/13^8-12/13-
-----------------------------------------------------------------------
-----------------------------------------------------------------------
-----------------------------------------------------------------------
-----------------------------------------------------------------------

-T-------T-------T-------T-------T-------T-------T-------
-17^13^8-18^13^8-17^13^8-15^13^8-17^13^8-18^13^8-17^13^8-
-+-------------------------------------------------------
-Here-the-tap-is-as usual--------------------------------
---------------------------------------------------------
---------------------------------------------------------

-T-------T-------T-------T-------T-------T-------T-------T-/-----
-15^13^8-17^13^8-18^13^8-17^13^8-15^13^8-17^13^8-18^13^8-18/20---
---------------------------------------------------------+-------
---------------------------------------------------------And-here-again the
----------------------------------------------pick-taps-on-18-and-slides to 20
-----------------------------------------------------------------

-----------------------------------------
--18b20--18b20~--20-18-17-17^18----------
--------------------------------19-17-19-
----------------------------------------------------
-----------------------------------------           
-----------------------------------------           
                            } X3
------------------------------------------------    
-17-18-18b20--18b20~--20-18-17-17-18------------    
-------------------------------------19---17-19-----
------------------------------------------------
------------------------------------------------
------------------------------------------------

----------------------------------------
-18b20--18b20~--20-18-17-17^18----------
-------------------------------19-17-19-
----------------------------------------
----------------------------------------
----------------------------------------

-----------------------------------------------
-17-18-18b20~-18b20--20-18-17-17-18------------
------------------------------------19--17-17--
-----------------------------------------------
-----------------------------------------------
-----------------------------------------------

------------------------------------------------------------
------------------------------------------------------------
-16--14--16--16/17----16^17^16------------------------------
-------------------------------17^19^17-----------------17/-
----------------------------------------17^19^17-15--17-----
------------------------------------------------------------
Добавлено: 26.01.2014
Другие материалы по этой песне:
  • Аккорды и текст

Страница создана 04.05.2012
http://primanota.ru/lacrimosa/tranen-der-sehnsucht-chords.htm
Привет, Гость.
Предлагаем пройти революционный курс по гитаре.
Подарок от PrimaNota.Ru, забирай!