PrimaNota.ru - самый крупный в мире бесплатный архив песенных текстов, аккордов, табулатур и нот


Lacrimosa - Road To Pain - аккорды и текст, таба, видео

Регистрация Запомнить меня
Войти через:  Facebook Google Twitter Vk Yandex Mail.ru

Lacrimosa - Road To Pain - аккорды и текст, таба, видео

Печатать
Просмотров: 184
Уроки эстрадного вокала в Санкт-Петербурге
Road To Pain
Lacrimosa
Tuning: Eb, Ab, Db, Gb, Bb, eb

Intro, Main riff
[eb------------------------------------- } x3
Bb-------------------------------------
Gb-------------------------------------
Db-2-----3---2-------9-7---2-----3---2-
Ab-2-----3---2-------7-5---2-----3---2-
Eb---0-0---0---0-0-0---------0-0---0---]
      . .   .   . . .         . .   .

[eb-------------------------------------------------
Bb-------------------------------------------------
Gb-------------------------------------------------
Db-2-----3---2-------9-7-------------------------2-
Ab-2-----3---2-------7-5-------------------------2-
Eb---0-0---0---0-0-0-----0-0-0-0-0-0-0-0-0-0-0-0---]
      . .   .   . . .     . . . . . . . . . . . .

                 x3
[eb----------------------------------------
Bb----------------------------------------
Gb----------------------------------------
Db-2-----3---2-------9-7--2-----3---------
Ab-2-----3---2-------7-5--2-----3---------
Eb---0-0---0---0-0-0-------0-0----0-0-0-0-]
      . .   .   . . .         . .    . . . .

                 x4                x4
[eb----------------------------------------
Bb----------------------------------------
Gb----------------------------------------
Db-2-----3---2-------9-7--2-2-2-2-2-2---2-
Ab-2-----3---2-------7-5--2-2-2-2-2-2---2-
Eb---0-0---0---0-0-0------0-0-0-0-0-0-0-0-]
      . .   .   . . .        . . . . .   .

                 x4
[eb-------------------------------------
Bb-------------------------------------
Gb-------------------------------------
Db-2-----3---2-------9-7--7-7-7-7-7----
Ab-2-----3---2-------7-5--7-7-7-7-7--7-
Eb---0-0---0---0-0-0------5-5-5-5-5--5-]
      . .   .   . . .        . . . . .

CHORUS: Difficult to hear

End of Chorus
[eb--------------------------------------------
Bb--------------------------------------------
Gb--------------------------------------------
Db-2-2-2-2-2--2-2-2-2-2--7-7-7-7-7--5-5-5-5-5-
Ab-2-2-2-2-2--2-2-2-2-2--7-7-7-7-7--5-5-5-5-5-
Eb-0-0-0-0-0--0-0-0-0-0--5-5-5-5-5--3-3-3-3-3-]
    . . . . .  . . . . .  . . . . .  . . . . .

[eb---------------------------------------------------------------
Bb---------------------------------------------------------------
Gb---------------------------------------------------------------
Db-2-----2-----2---2-----2-----2---2-----2-----2---2-----2-2-2-2-
Ab-2-----2-----2---2-----2-----2---2-----2-----2---2-----2-2-2-2-
Eb-0-0-0-0-0-0-0-0-0-0-0-0-0-0-0-0-0-0-0-0-0-0-0-0-0-0-0-0-0-0-0-]
      . .   . .   .   . .   . .   .   . .   . .   .   . .   . .

                 x4                x4
[eb----------------------------------------
Bb----------------------------------------
Gb----------------------------------------
Db-2-----3---2-------9-7--2-2-2-2-2-2---2-
Ab-2-----3---2-------7-5--2-2-2-2-2-2---2-
Eb---0-0---0---0-0-0------0-0-0-0-0-0-0-0-]
      . .   .   . . .        . . . . .   .

                 x3
[eb----------------------------------------
Bb----------------------------------------
Gb----------------------------------------
Db-2-----3---2-------9-7--2-----3---------
Ab-2-----3---2-------7-5--2-----3---------
Eb---0-0---0---0-0-0-------0-0----0-0-0-0-]
      . .   .   . . .         . .    . . . .

[eb-----------------
Bb-----------------
Gb----------------- } Repeat Many Times
Db-----------------
Ab-----------------
Eb-0-0-1-0-3-0-2-0-]
    . . . . . . . .

CHORUS: Difficult to hear
End Of Chorus
[eb--------------------------------------------
Bb--------------------------------------------
Gb--------------------------------------------
Db-2-2-2-2-2--2-2-2-2-2--7-7-7-7-7--5-5-5-5-5-
Ab-2-2-2-2-2--2-2-2-2-2--7-7-7-7-7--5-5-5-5-5-
Eb-0-0-0-0-0--0-0-0-0-0--5-5-5-5-5--3-3-3-3-3-]
    . . . . .  . . . . .  . . . . .  . . . . .

END
[eb---------------------------------------------------------------
Bb---------------------------------------------------------------
Gb---------------------------------------------------------------
Db-2-----2-----2---2-----2-----2---2-----2-----2---2-----2-2-2-2-
Ab-2-----2-----2---2-----2-----2---2-----2-----2---2-----2-2-2-2-
Eb-0-0-0-0-0-0-0-0-0-0-0-0-0-0-0-0-0-0-0-0-0-0-0-0-0-0-0-0-0-0-0-]
      . .   . .   .   . .   . .   .   . .   . .   .   . .   . .

.  Palm Mute
Добавлено: 14.09.2013
Другие материалы по этой песне:

Страница создана 28.08.2013
http://primanota.ru/lacrimosa/road-to-pain-chords.htm
Привет, Гость.
Предлагаем пройти революционный курс по гитаре.
Подарок от PrimaNota.Ru, забирай!