PrimaNota.ru - самый крупный в мире бесплатный архив песенных текстов, аккордов, табулатур и нот


Lacrimosa - Lacrimosa Theme - аккорды и текст, таба, видео

Регистрация Запомнить меня
Войти через:  Facebook Google Twitter Vk Yandex Mail.ru

Lacrimosa - Lacrimosa Theme - аккорды и текст, таба, видео

Печатать
Просмотров: 110
Lacrimosa Theme
Lacrimosa
/   - slide up
( ) - chords behind the main melody
~   - let the note sound
 
This is the main theme Lacrimosa plays
in their live presentations, it is played
by the keyboards but I tabbed it for a
guitar because it is really a great
melody. This is the first Lacrimosa tab
I make. As I realised there was nothing
in the web about Lacrimosa and their
music, I spent my entire vacations tabbing
all the Live album and I hope my work
turns out to be useful for those Lacrimosa
fans. Enjoy!

Intro: keyboard

[e-10--9--8--7------/10-10--9-9--8-8--7-----/10-10--9-9--8-8--7--
B---------------------------------------------------------------
G---------------------------------------------------------------
D---------------------------------------------------------------
A---------------------------------------------------------------
E---------------------------------------------------------------]

ENTERS ORCHESTA:

---------------------------------------------------------------
---------------------------------------------------------------
-------4--5--------------4--5-----------4--5-----------4--5----
---------------------------------------------------------------
--0~~~~~~~~~~~~~~~~~~~~~~~~~~~~~~~~~~~~~~~~~~~~~~~~~~~~~~~~~~--
---------------------------------------------------------------

THEN:
    Gm              Dm            Am              E
--(3)---6--5--3---(5)---5--3--1--0----8--7--5---(0)---4--5--7----- 
--(3)-------------(6)-----------(1)-------------(0)---------------  
--(3)-------------(7)-----------(2)-------------(1)---------------   
--(5)-------------(7)-----------(2)-------------(2)---------------    
--(5)-------------(5)-----------(0)-------------(2)---------------     
--(3)-------------------------------------------(0)---------------      
                                        X2
   Gm         Dm               Am               E                 /
--(3)---13--12--10---(5)---13--12--10--8---12--10--8----12--------      /
--(3)----------------(6)--------------(1)--------------(0)--------     /
--(3)----------------(7)--------------(2)--------------(1)--------    /
--(5)----------------(7)--------------(2)--------------(2)--------   /
--(5)----------------(5)--------------(0)--------------(2)--------  /
--(3)--------------------------------------------------(0)-------- /
Добавлено: 20.10.2013
Другие материалы по этой песне:
  • Аккорды и текст

Страница создана 20.10.2013
http://primanota.ru/lacrimosa/lacrimosa-theme-chords.htm
Привет, Гость.
Предлагаем пройти революционный курс по гитаре.
Подарок от PrimaNota.Ru, забирай!